Fake Tales Of San Francisco

Arctic Monkeys

Composição de: Arctic Monkeys
[--------------------------------------------------------------------------]



Intro (drum)

Verse
G [------------------------------------------------------------------------]
D [---------------------------------------------------------------4--7--4--]
A [----5-----5--7--5------5-----5--7--5------5-----5--7--5------5--------7-]
E [-7-----7------------7-----7------------7-----7------------7------------7]

This is the more difficult version, but I think the sound of is better than this (The 
easy version):

G [------------------------------------------------------------------2-----]
D [----0-----0--2--0------0-----0--2--0------0-----0--2--0-----0--4----4-2-]
A [-2-----2------------2-----2------------2------------------2------------2]
E [------------------------------------------------------------------------]

Play this Verse 5 times

Chorus

G [------------------------------------------------------------------------]
D [------------------------------------------------------------------------]
A [---------------------------------0--2------------------------------0--2-]
E [---------------------------0--2------------------------------0--2-------]

Verse

Chorus

This is a jam part, warm up before you do this.

Coda

G [------------------------------------------------------------------------]
D [---------------------------------------------------------------2-2-2-2-2]
A [-2-2-2-2-2-2-2-2-2-2-2-2-2-2-2-2---------------2-2--0-0----0-0----------]
E [---------------------------------3-3-3-3-3-3-3----------2-2-------------]
                                               
G [--------------------------------------]\ 
D [-----------------------------0-1-2----] \     
A [-2-2--0-0----0-0-2-2-2-2-2-2----------] / 2 TIMES
E [----------2-2-------------------------]/   

G [------------------------------------------------------------------------]
D [---------------------------------------------------------------2-2-2-2-2]
A [-2-2-2-2-2-2-2-2-2-2-2-2-2-2-2-2---------------2-2--0-0----0-0----------]
E [---------------------------------3-3-3-3-3-3-3----------2-2-------------]

G [---------------------------------------]
D [---------------------------------------]
A [-2-2--0-0----0-0-----------------------]
E [----------2-2-----3-3-3-3-3-3-3-3--7/0-]

This is the Outro you have to play this with the more difficult version of the verse, 
now you can slide.

Outro

G [------------------------------------------------------------------------]
D [------------------------------------------------------------------------]
A [----5-----------5-----------5-----------5-------------------------------]
E [-7-----7/3---7-----7/3---7-----7/3---7-----7/3---7--7/0-----------------]

This is my first tab, so if I screwed it than you know.
Please rate!
Thanks!
Página 1 / 1

Letras e título
Acordes e artista

resetar configurações
OK