Cifra Club

Four out of Five

Arctic Monkeys

Cifra: Principal (violão e guitarra)
Tom: Dm
[Intro] Am  Am7  Am  Am  Am7  Am  F
        Am  Am7  Am  Am  Am7  Am  F

E|-----------------------------------------------------| 
B|-----------------------------------------------------|
G|----------------4-2----------------------------------|
D|--------------2------5-7----------------5-3------3-3-|
A|----------2-3---------------------2-0-3------5-3-----|
E|--5--3-5-------------------5-3-5---------------------|

E|-----------------------------------------------------|
B|-----------------------------------------------------|
G|-----------------------------------------------------|
D|--------------2-------------------------5-3------3-3-|
A|----------2-3---3-----------------2-0-3------5-3-----|
E|--5--3-5----------5--------5-3-5---------------------|

E|-----------------------------------------------------|
B|-----------------------------------------------------|
G|-----------------------------------------------------|
D|--------------2-------------------------5-3------3-3-|
A|----------2-3---2-0----------------2-0-3------5-3----|
E|--5--3-5------------3-5~---5-3-5---------------------|

E|-----------------------------------------------------|
B|-----------------------------------------------------|
G|----------------4-2----------------------------------|
D|--------------2------5-7----------------5-3~---------|
A|----------2-3---------------------2-0-3--------------|
E|--5--3-5-------------------5-3-5---------------------|

[Primeira Parte]

Am
Advertise in imaginative ways
Am
Start your free trial today
        F
Come on in the waters, lovely

Am
Look you could meet someone you like
Am
During the meteor strike
        F
It is that easy

[Pré-Refrão]

 Am
Lunar surface on a saturday day night
Am
Dressed up in silver and white with
         F
Coloured old grey whistle test lights

[Refrão]

Em                   Am
 Take it easy for a little while
           Fmaj7
Come and stay with us
      G             Em
It's such an easy flight
                         Am
Cute new places keep on popping up
          Fmaj7            G             Em
Since the exodus it's all getting gentrified
                 Am                  Fmaj7
I put a taqueria on the roof it was well reviewed
 G                 Em  Fmaj7      Am          Am7 Am Am7 Am F
Four stars out of five  and thats unheard of

[Segunda Parte]

  Am
Mr Bridge and tunnel on the starlight express
                                   F
The hero of special effects in my mind's eye
Am
Hokey cokey with the opposite sex

The things you try to forget
         F
Doesn't time fly
Am
I'm in no position to give advice

I don't want to be nice
          F
And you know that

[Refrão]

Em                   Am
 Take it easy for a little while
          Fmaj7
Come and stay with us
      G             Em
It's such an easy flight
                         Am
Cute new places keep on popping up
          Fmaj7          G             Em
Around Clavius it's all getting gentrified
                        Am            Fmaj7
The information action ratio is the place to go
         G             Em  Am    Fmaj7        G
And you will not recognise   the old headquarters

[Ponte]

Cm                                           Cdim7
 All the nights that never happened and the days that don't exist
       G           Ddim7        Cm  Cm7
At the information action ratio
C#m                                       C#dim7
Only time that we stop laughing is to breathe or steal a kiss
       B              Cdim7             C#m  C#madd6
I can get you on the list for all the clubs
       B            Cdim7      C#m  C#madd6
I can lift you up another semitone

( Gm  C  F  Dm )

[Refrão]

Dm
 Take it easy for a little while
C
 Come and stay with us
      F             Dm
It's such an easy flight
C
  Cute new places keep on popping up
                           F             Dm
Since the exodus it's all getting gentrified
                                      C
The information action ratio is the place to go
 F                 Dm
Four stars out of five
Dm
 Take it easy for a little while
C
 Come and stay with us
           F             Dm
Now, it’s such an easy flight
Dm
 Cute new places keep on popping up
C                         F             Dm
Around Clavius, it’s all getting gentrified
Dm
I put a taqueria on the moon
C
It got rave reviews
 F                 Dm
Four stars out of five

Dm
 Take it easy for a little while
C
 Come and stay with us
 F                 Dm
Four stars out of five
Dm
 Take it easy for a little while
C
 Come and stay with us
 F                 Dm
Four stars out of five
Dm
 Take it easy for a little while
C
 Come and stay with us
 F                 Dm
Four stars out of five
Dm
 Take it easy for a little while
C
 Come and stay with us
 F                 Dm
Four stars out of five

( Dm  C )

 F
Four stars out of five

[Final] Am
exibições 25.515
Acordes para:
    Composição: Alex Turner Colaboração e revisão:

    0 comentários

    mostrar mais comentários

    Conseguiu tocar?

    14 tocaram 6 ainda não

    Grave um vídeo tocando Four out of Five e mande pra gente!

    00:00 / 00:00
    outros vídeos desta música
    repetir qualidade Automático
    Outros vídeos desta música
    00:00 / 00:00
    Automático
    OK