If You Were There, Beware

Arctic Monkeys

Composição de: Alex Turner / Arctic Monkeys
tom: E
Intro:

E|---------------------------------------------|
B|---------------------------------------------|
G|---------------------------------------------|  4x
D|--------5-------5-------5-------5------------| 
A|---7------6-7-----6-7-----6-7-----6----------|
E|---------------------------------------------|

Parte oitavada + Riff:

                                
E|------------------------------|
B|----8------8-----8-----8------| 
G|--9----8-9---8-9---8-9----8---|  
D|------------------------------|   
A|------------------------------|    
E|------------------------------|     
                                        2x
E|------------------------------|     
B|-------8-7-7-7-------8-7-7-7--|    
G|----9--------------9----------|   
D|-10-------------10------------|  
A|------------------------------| 
E|------------------------------|
                                
Riff 2:

E|-------------|-------|------------|-------|
B|-----8-------|-------|----8-------|-------|
G|---9----8-9--|-pausa-|--9----8-9--|-pausa-|
D|-------------|-------|------------|-------|
A|-------------|-------|------------|-------|
E|-------------|-------|------------|-------|

E|------------------------------|
B|-------8-7-7-7-------8-7-7-7--|
G|----9--------------9----------|
D|-10-------------10------------|
A|------------------------------|
E|------------------------------|

Riff principal da Intro:

E|------------------------------|
B|----8------8-----8-----8------|
G|--9----8-9---8-9---8-9----8---|
D|------------------------------|
A|------------------------------|
E|------------------------------|
                                 
E|------------------------------|
B|-------8-7-7-7-------8-7-7-7--|
G|----9--------------9----------|
D|-10-------------10------------|
A|------------------------------|
E|------------------------------|


Em                                        C
if you were there, beware the serpent soul pinchers.

      Em                                         C
Three hundred and fifty no thank yous and nobody flinches

   Em                                              C
Go on girl go on, give us something gruesome we require your grief, the thugs help the thieves

           Em                                                 C
As they're trying to rob the words from her gob and take the source of the innocents

Solo:

E|-----3---------7---------3---------7---------|
B|---5---5-----7---7-----5---5-----7---7-------|
G|---------------------------------------------|  4x
D|---------------------------------------------|
A|---------------------------------------------|
E|---------------------------------------------|

Riff (de 1:25 até 2:35):


E|---------------------------------------------|
B|---8^^-----5^^-----4^^-----------------------| 
G|---9^^-----5^^-----4^^-----------------------|  2x
D|---------------------------------------------|   
A|--10^^-----7^^-----6^^-----------------------|  
E|---------------------------------------------| 

E é repetido durante todo o verso:

(riff1)

If you were there, beware the serpent soul pinchers
Can't you sense she was never meant to fill column inches
And you've had enough, what you're trying to dig up isn't there to be dug,
the thieves help the thugs
As they're trying beat the good grace of a sweetheart out to the point she'll comply

Why leave her on her own
If I'd have known then I wouldn't have said it
I wouldn't have said it if I would have known
Why leave her on her own
If I predicted tears then I wouldn't have said it
I wouldn't have said it if I would have known

Ao tempo de 2:36 começa um riff feito com power chords

E|-----------------------------------|
B|-----------------------------------|
G|-----------------------------------|   2x
D|--777-555-101010-999-222-xxx-222---|   
A|--777-555-101010-999-222-xxx-222---|  
E|--555-333--8-8-8-777-000-xxx-000---|

E|------------------------------------|
B|------------------------------------|
G|---------555-444-555-----444-777----|
D|-777-555-555-444-555-555-444-777----|
A|-777-555-333-222-333-555-222-555----|
E|-555-333-------------333------------|

E|------------------------------------|
B|------------------------------------|
G|-555-----444-----555-----44444------|
D|-555-555-444-444-555-555-44444-2^^--|
A|-333-555-222-444-333-555-22222-2^^--|
E|-----333-----222-----333-------0^^--|

Riff (começa em 3:09):

E|-------------|----------------------------|
B|-------------|----------------------------| 
G|-------------|----------------------------|  
D|----5----5---|-------------------14--17---|  
A|--7---6----6-|---------14-15-17-----------| 
E|-------------|--15--17--------------------|

E|---------------------------------------------------|
B|---------------------------------------------------|
G|---------------------------------------------------|
D|---5-----5---5---5-9-12-10-10-10-10-10-14-14---444-| 
A|-7---6-7--6-7-6-7------------------------------444-|
E|---------------------------------------------0-222-|

E|------------------------------|
B|----8------8-----8-----8------| 
G|--9----8-9---8-9---8-9----8---|  
D|------------------------------|   
A|------------------------------|    
E|------------------------------|      \
                                        | 2x
E|------------------------------|      /
B|-------8-7-7-7-------8-7-7-7--|    
G|----9--------------9----------|   
D|-10-------------10------------|  
A|------------------------------| 
E|------------------------------|
                                
E|-------------|-------|-------------------|
B|-----8-------|-------|----8--------------|
G|---9----8-9--|-pausa-|--9----8-9-8-7-5---|
D|-------------|-------|-------------------|
A|-------------|-------|-------------------|
E|-------------|-------|-------------------|

E|------------------------------|
B|-------8-7-7-7-------8-7-7-7--|
G|----9--------------9----------|
D|-10-------------10------------|
A|------------------------------|
E|------------------------------|

E|------------------------------|
B|----8------8-----8-----8------|
G|--9----8-9---8-9---8-9----8---|
D|------------------------------|
A|------------------------------|
E|------------------------------|
                                 
E|------------------------------|
B|-------8-7-7-7-------8-7-7-7--|
G|----9--------------9----------|
D|-10-------------10------------|
A|------------------------------|
E|------------------------------|

E|-----------------------|
B|-7/8^^^--8-7-6-5-------|
G|-----------------------|
D|-----------------------|
A|-----------------------|
E|-----------------------|
Página 1 / 1

Letras e título
Acordes e artista

resetar configurações
OK