Old Yellow Bricks

Arctic Monkeys

Composição de: Arctic Monkeys
tom: A
Intro / Verso:
E|-----------------|-----------------|----------------|----------------|
B|-----------------|-----------------|----------------|----------------|
G|-----------------|-----------------|----------------|----------------|
D|-----------------|-----------------|----------------|----------------|  
A|-----------------|--7---7--7--7-7--|--8--8--8--8-8--|--5--5--5--5-5--|
E|---5--5--5--5-5--|-----------------|----------------|----------------|

Ponte 1:
E|---------------------------|
B|---------------------------|
G|---------------------------|
D|-----9-10------------------|
A|--7-------5-7--2-3--5-7----|
E|---------------------------|

E|---------------------------|
B|---------------------------|
G|---------------------------|
D|-----9-10------------------|
A|--7-------10-12--7-8--10-12|
E|---------------------------|

Ponte 2:
E|---------------------------|
B|--5-6-5-4-5-6-5-4-5-6-5-4--|
G|---------------------------|
D|---------------------------|
A|---------------------------|
E|---------------------------|

Refrão:
       D5  E5 F5                        D5
E|---x--x--x-------x-----------|  |-x-|
B|---x--x--x-------x-----------|  |-x-|
G|---7--9--10------9-----------|  |-7-|
D|---7--9--10------9-----------|  |-7-|
A|---5--7--8-------7-----------|  |-5-|
E|---x--x--x-------x-----------|  |-x-|


(INTRO)

(VERSO)
Old Yellow Bricks
Love's a risk
Quite the little escapologist
Looked so miffed ,when you wished
For a thousand places better than this
You are the fugitive but you don't know what you're running from
You can't kid us and you couldn't trick anyone
Houdini, love you don't know what you're running away from


(REFRÃO)    (D5  E5  F5      E5)
Who wants to sleep in the city that never wakes up
Blinded by nostalgia
Who wants to sleep in the city that never wakes up

(VERSO)
She was enraged by the way
That the emperors put traps in the cage
And her days she being dull
Lead to nights reading beer bottles
You're such a fugitive but you don't know what you're running from
You can't kid us yeah you can't trick anyone
Houdini, love you don't know what you're running from

(REFRÃO)    (D5  E5  F5      E5)
Who wants to sleep in the city that never wakes up
Blinded by nostalgia
Who wants to sleep in the city, that never wakes up

(PONTE1)

(PONTE2)

(REFRÃO)    (D5  E5  F5      E5)
You're at a loss, just because
It wasn't all that you thought it was
You're the fugitive but you don't know what you're running away from
She said I want to sleep in the city that never wakes up
And revel in nostalgia
I know I said he wants to sleep in the city that never wakes up
But Dorothy was right though...

(INTRO)

(PONTE2)
Página 1 / 1

Letras e título
Acordes e artista

resetar configurações
OK