Red Light Indicates Doors Are Secured

Arctic Monkeys

Composição de: Alex Turner / Arctic Monkeys
tom: A
Intro

1st guitar
E |------------------|
B |------------------|
G |------------------|
D |------------------|
A |----------5--4----|
E |-2-2-2--5------5-4|

2nd guitar (you have to listen to get the timing)
E |----------|
B |----------|
G |-----11---|
D |-----11---|
A |-----9----|
E |----------|

Verse

E |------------------|
B |------------------|
G |------------------|
D |------------------|
A |----------5--4----|
E |-2-2-2--5------5-4|

This comes later
E |------------------|
B |------4-----------|
G |--4-2-4--9-10-11--|
D |--4-2-4--9-10-11--|
A |--2-0-2--7-8--9---|
E |------------------|

Verse 2(it’s the same as the intro)

1st guitar
E |------------------|
B |------------------|
G |------------------|
D |------------------|
A |----------5--4----|
E |-2-2-2--5------5-4|

2nd guitar
E |----------|
B |----------|
G |-----11---|
D |-----11---|
A |-----9----|
E |----------|

This comes later



E |------------|
B |------------|
G |--4---4-----|
D |--4-7-4--7--|
A |--2-7-2--7--|
E |----5----5--|

E |--------------|
B |--------------|
G |--4---4--9-11-|
D |--4-7-4--9-11-|
A |--2-7-2--7-8--|
E |----5---------|

Solo


1st guitar
E |------------------|
B |------------------|
G |------------------|
D |------------------|
A |----------5--4----|
E |-2-2-2--5------5-4|

2nd guitar
E |--------------------------------|
B |--------------------------------|
G |--------------------------------|
D |--------------------------------|
A |--9-7--4------------------------|
E |---------7-5-7-5--5-5-7-5-7-5---|

E |----------------------------------------------------|
B |----------------------------------------------------|
G |----------------------------------------------------|
D |---------------------------------------7------7h9---|
A |------------------------4-7-4-7--9-7-9---9--9-------|
E |--7-5-7-5-5-2--0-2--5-7-----------------------------|

E |-------------------------------------------------|
B |-------------------------------------------------|
G |-------------------------------------------------|
D |--9-9-9h7-------7---9/7--9-9-9h7-------7----9/7--|
A |----------9-7-9---9--------------9-7-9---9-------|
E |-------------------------------------------------|

E |----------------------------------------------------|
B |----------------------------------------------------|
G |----------------------------------------------------|
D |--9-9-9h7-------7----9/7--9/11-9-7-9--9/11-9-7-9-7--|
A |----------9-7-9---9---------------------------------|
E |----------------------------------------------------|

E |-----------------------------------------|
B |-----------------------------------------|
G |-----------------------------------------|
D |--9-9-9-9--7-7-7------------------7-9-10b|
A |------------------9-9-9--7-7-7--9--------|
E |-----------------------------------------|

E |--------------|
B |--------------|
G |--4---4--9-11-|
D |--4-7-4--9-11-|
A |--2-7-2--7-8--|
E |----5---------|


3rd verse/ending

1st guitar
E |------------------|
B |------------------|
G |----------7-6-----|
D |--4-4-4-7-----7-6-|
A |------------------|
E |------------------|

2nd guitar
E |------------------|
B |------------------|
G |------------------|
D |------------------|
A |----------5--4----|
E |-2-2-2--5------5-4|
Página 1 / 1

Letras e título
Acordes e artista

resetar configurações
OK