Cifra Club

Aprenda

Red Light Indicates Doors Are Secured

Arctic Monkeys

Tab de baixo: Versão 3
Já pensou em usar uma coleção de roupas do Cifra Club? Responda as perguntas abaixo e nos ajude nessa missão! →
Whatever People Say I Am, That's What I'm Not
Tabbed by Carlson2000
Tuning; EAGB (Standard)

Intro
=====
g|---------------------------------|
d|-------4---------------4---------|
a|-----4---5-4-2-0-----4---5-4-2-0-| x2
e|-2-5-------------2-5-------------|

Verse
=====
g|-----------------------------------|
d|-----------------------------------|
a|-----------------------------------|
e|-2------------2---------2-------2--|
     "As you....its not..you're...so i'll"

g|-----------------------------------------|
d|-----------------------------------------|
a|-----------------------------------------|
e|-0-2--------0-2----------0-2----------2--|
   "he won't...especially..he could've...he didn't.

g|---------------------------------|
d|-------4---------------4---------|
a|-----4---5-4-2-0-----4---5-4-2-0-|
e|-2-5-------------2-5-------------|

g|---------------------------|
d|-------4-----------------4-|
a|-----4---5-4-2-0-----5-4---|
e|-2-5-------------2-5-------|

g|---------------------------------|
d|-------4---------------4---------|
a|-----4---5-4-2-0-----4---5-4-2-0-|  x2
e|-2-5-------------2-5-------------|

Chorus
======

g|------------------------------------------------|
d|----------------------------------------2-2-3-3-|
a|-2-2-2-2-2-2-2-2-0-0-0-0-0-0-0-0-2-2-2-2--------|
e|------------------------------------------------|

g|---------------------------------|
d|-------4---------------4---------|
a|-----4---5-4-2-0-----4---5-4-2-0-|  x2
e|-2-5-------------2-5-------------|

Verse 2
=======
g|---------------------------------|
d|-------4---------------4---------|
a|-----4---5-4-2-0-----4---5-4-2-0-|  x4
e|-2-5-------------2-5-------------|

Chorus 2
========
g|-------------------------------------------------|
d|-------------------------------------------------|
a|-2-2-2-2-2-2-2-2-0-0-0-0-0-0-0-0-2-2-2-2-2-2-2-2-|
e|-------------------------------------------------|

g|------------------------------------------------|
d|----------------------------------------2-2-3-3-|
a|-2-2-2-2-2-2-2-2-0-0-0-0-0-0-0-0-2-2-2-2--------|
e|------------------------------------------------|

Guitar Solo
===========
g|---------------------------------|
d|-------4---------------4---------|
a|-----4---5-4-2-0-----4---5-4-2-0-|  x4
e|-2-5-------------2-5-------------|

Bridge
======
g|-------------------------------------------------|
d|-------------------------------------------------|
a|-2-2-2-2-2-2-2-2-0-0-0-0-0-0-0-0-2-2-2-2-2-2-2-2-|
e|-------------------------------------------------|

g|------------------------------------------------|
d|----------------------------------------2-2-3-3-|
a|-2-2-2-2-2-2-2-2-0-0-0-0-0-0-0-0-2-2-2-2--------|
e|------------------------------------------------|

Outro
=====
g|---------------------------------|
d|-------4---------------4---------|
a|-----4---5-4-2-0-----4---5-4-2-0-|  x3
e|-2-5-------------2-5-------------|

g|-------------------|
d|-------4-----------|
a|-----4---5-4-2-0---|
e|-2-5-------------2-|
                  "red light indicates doors are secured."
Composição de Alex Turner / Arctic Monkeys
143 exibições

0 comentários

Ver todos os comentários

Conseguiu tocar?

0 Tocaram 0 Ainda não

Grave um vídeo tocando Red Light Indicates Doors Are Secured e nos envie!

00:00 / 00:00
Outros vídeos desta música
Repetir Qualidade Automático
Outros vídeos desta música
00:00 / 00:00
Automático

Cifra Club Pro

Aproveite o Cifra Club com benefícios exclusivos e sem anúncios
Cifra Club Pro
Aproveite o Cifra Club com benefícios exclusivos e sem anúncios
OK