Cifra Club

You Probably Couldn’t See For The Lights But You Were Staring Straight At Me

Arctic Monkeys

Cifra: Principal (violão e guitarra)
tom: Bm
[Tab - Intro]

[Guitarra 1]

Parte 1 de 8

     B5                                D5    G5   F#5  
E|---------------------------------------------------|
B|---------------------------------------------------|
G|-------------------------------------------12---11-|
D|-9-9-9-9-9-9-9-9-9-9-9-9-9-9-9-9---12-12---12---11-|
A|-9-9-9-9-9-9-9-9-9-9-9-9-9-9-9-9---12-12---10---9--|
E|-7-7-7-7-7-7-7-7-7-7-7-7-7-7-7-7---10-10-----------|

Parte 2 de 8

    D5    G5   F#5  
E|---------------------------------------------------|
B|---------------------------------------------------|
G|---------12---11-----------------------------------|
D|-12-12---12---11-----------------------------------|
A|-12-12---10---9------------------------------------|
E|-10-10---------------------------------------------|

Parte 3 de 8

     B5                                D5    G5   F#5  
E|---------------------------------------------------|
B|---------------------------------------------------|
G|-------------------------------------------12---11-|
D|-9-9-9-9-9-9-9-9-9-9-9-9-9-9-9-9---12-12---12---11-|
A|-9-9-9-9-9-9-9-9-9-9-9-9-9-9-9-9---12-12---10---9--|
E|-7-7-7-7-7-7-7-7-7-7-7-7-7-7-7-7---10-10-----------|

Parte 4 de 8

    D5    G5   F#5  
E|---------------------------------------------------|
B|---------------------------------------------------|
G|---------12---11-----------------------------------|
D|-12-12---12---11-----------------------------------|
A|-12-12---10---9------------------------------------|
E|-10-10---------------------------------------------|

Parte 5 de 8

     B5                                D5    G5   F#5  
E|---------------------------------------------------|
B|---------------------------------------------------|
G|-------------------------------------------12---11-|
D|-9-9-9-9-9-9-9-9-9-9-9-9-9-9-9-9---12-12---12---11-|
A|-9-9-9-9-9-9-9-9-9-9-9-9-9-9-9-9---12-12---10---9--|
E|-7-7-7-7-7-7-7-7-7-7-7-7-7-7-7-7---10-10-----------|

Parte 6 de 8

    D5    G5   F#5  
E|---------------------------------------------------|
B|---------------------------------------------------|
G|---------12---11-----------------------------------|
D|-12-12---12---11-----------------------------------|
A|-12-12---10---9------------------------------------|
E|-10-10---------------------------------------------|

Parte 7 de 8

     B5            F#5
E|---------------------------------------------------|
B|---------------------------------------------------|
G|---------11-11-11-11-11-11-11-11-11----------------|
D|-9-x-9---11-11-11-11-11-11-11-11-11----------------|
A|-9-x-9---9--9--9--9--9--9--9--9--9-----------------|
E|-7-x-7---------------------------------------------|

Parte 8 de 8

E|---------------------------------------------------|
B|---------------------------------------------------|
G|---------------------------------------------------|
D|-9-7-----9-7---------------------------------------|
A|-----9-------9-------------------------------------|
E|-------7-------------------------------------------|

[Guitarra 2]

Parte 1 de 7

         B5                           D5    G5   F#5  
E|---------------------------------------------------|
B|---------------------------------------------------|
G|-------------------------------------------12---11-|
D|-9-9-9-9-9-9-9-9-9-9-9-9-9-9-9-9---12-12---12---11-|
A|-9-9-9-9-9-9-9-9-9-9-9-9-9-9-9-9---12-12---10---9--|
E|-7-7-7-7-7-7-7-7-7-7-7-7-7-7-7-7---10-10-----------|

Parte 2 de 7

    D5    G5   F#5  
E|---------------------------------------------------|
B|---------------------------------------------------|
G|---------12---11-----------------------------------|
D|-12-12---12---11-----------------------------------|
A|-12-12---10---9------------------------------------|
E|-10-10---------------------------------------------|

Parte 3 de 7

         B5                           D5    G5   F#5  
E|---------------------------------------------------|
B|---------------------------------------------------|
G|-------------------------------------------12---11-|
D|-9-9-9-9-9-9-9-9-9-9-9-9-9-9-9-9---12-12---12---11-|
A|-9-9-9-9-9-9-9-9-9-9-9-9-9-9-9-9---12-12---10---9--|
E|-7-7-7-7-7-7-7-7-7-7-7-7-7-7-7-7---10-10-----------|

Parte 4 de 7

    D5    G5   F#5  
E|---------------------------------------------------|
B|---------------------------------------------------|
G|---------12---11-----------------------------------|
D|-12-12---12---11-----------------------------------|
A|-12-12---10---9------------------------------------|
E|-10-10---------------------------------------------|

Parte 5 de 7

         B5                           D5    G5   F#5  
E|---------------------------------------------------|
B|---------------------------------------------------|
G|-------------------------------------------12---11-|
D|-9-9-9-9-9-9-9-9-9-9-9-9-9-9-9-9---12-12---12---11-|
A|-9-9-9-9-9-9-9-9-9-9-9-9-9-9-9-9---12-12---10---9--|
E|-7-7-7-7-7-7-7-7-7-7-7-7-7-7-7-7---10-10-----------|

Parte 6 de 7

    D5    G5   F#5  
E|---------------------------------------------------|
B|---------------------------------------------------|
G|---------12---11-----------------------------------|
D|-12-12---12---11-----------------------------------|
A|-12-12---10---9------------------------------------|
E|-10-10---------------------------------------------|

Parte 7 de 7

     B5            F#5
E|---------------------------------------------------|
B|---------------------------------------------------|
G|---------11-11-11-11-11-11-11-11-11----------------|
D|-9-x-9---11-11-11-11-11-11-11-11-11----------------|
A|-9-x-9---9--9--9--9--9--9--9--9--9-----------------|
E|-7-x-7---------------------------------------------|

[Primeira Parte]

One look sends it coursing through the veins

Oh how the feeling races

Back up to their brains to form expressions

On their stupid faces

They don't want to say hello

Like I want to say hello

Well, the heartbeat's at it's peak

When you're coming up to speak

[Guitarra 2]

E|---------------------------------------------------|
B|---------------------------------------------------|
G|---------------------------------------------------|
D|-- 9-7---------------5-----------------------------|
A|-------9-7-5-7-7-5-7---5-4-------------------------|
E|-7-------------------------------------------------|

E|---------------------------------------------------|
B|---------------------------------------------------|
G|---------------------------------------------------|
D|-- 9-7---------------5-----------------------------|
A|-------9-7-5-7-7-5-7---5-4-------------------------|
E|-7-------------------------------------------------|

E|---------------------------------------------------|
B|---------------------------------------------------|
G|---------------------------------------------------|
D|-- 9-7---------------5-----------------------------|
A|-------9-7-5-7-7-5-7---5-4-------------------------|
E|-7-------------------------------------------------|

E|---------------------------------------------------|
B|---------------------------------------------------|
G|---------------------------------------------------|
D|-- 9-7---------------5-----------------------------|
A|-------9-7-5-7-7-5-7---5-4-------------------------|
E|-7-------------------------------------------------|

[Segunda Parte]

And well I'm so tense and never tenser

Could all go a bit Frank Spencer

And I'm talking gibberish

Tip of the tongue but I can't deliver it

Properly, oh, it's all getting on top of me

And if it weren't this dark you'd see

How red my face has gone, yeah

[Guitarra 1]

Parte 1 de 8

  B5   D5  E5   F#5  D5
E|---------------------------------------------------|
B|---------------------------------------------------|
G|----------9---11-----------------------------------|
D|-9---12---9---11---12------------------------------|
A|-9---12---7---9----12------------------------------|
E|-7---10------------10------------------------------|

Parte 2 de 8

  B5   D5  E5   F#5  D5
E|---------------------------------------------------|
B|---------------------------------------------------|
G|----------9---11-----------------------------------|
D|-9---12---9---11---12------------------------------|
A|-9---12---7---9----12------------------------------|
E|-7---10------------10------------------------------|

Parte 3 de 8

  B5   D5  E5   F#5  D5
E|---------------------------------------------------|
B|---------------------------------------------------|
G|----------9---11-----------------------------------|
D|-9---12---9---11---12------------------------------|
A|-9---12---7---9----12------------------------------|
E|-7---10------------10------------------------------|

Parte 4 de 8

  B5   D5  E5   F#5  D5
E|---------------------------------------------------|
B|---------------------------------------------------|
G|----------9---11-----------------------------------|
D|-9---12---9---11---12------------------------------|
A|-9---12---7---9----12------------------------------|
E|-7---10------------10------------------------------|

Parte 5 de 8

  B5   D5  E5   F#5  D5
E|---------------------------------------------------|
B|---------------------------------------------------|
G|----------9---11-----------------------------------|
D|-9---12---9---11---12------------------------------|
A|-9---12---7---9----12------------------------------|
E|-7---10------------10------------------------------|

Parte 6 de 8

  B5   D5  E5   F#5  D5
E|---------------------------------------------------|
B|---------------------------------------------------|
G|----------9---11-----------------------------------|
D|-9---12---9---11---12------------------------------|
A|-9---12---7---9----12------------------------------|
E|-7---10------------10------------------------------|

Parte 7 de 8

  B5   D5  E5   F#5  D5
E|---------------------------------------------------|
B|---------------------------------------------------|
G|----------9---11-----------------------------------|
D|-9---12---9---11---12------------------------------|
A|-9---12---7---9----12------------------------------|
E|-7---10------------10------------------------------|

Parte 8 de 8

  B5   D5  E5   F#5  D5
E|---------------------------------------------------|
B|---------------------------------------------------|
G|----------9---11-----------------------------------|
D|-9---12---9---11---12------------------------------|
A|-9---12---7---9----12------------------------------|
E|-7---10------------10------------------------------|

[Guitarra 2]

Parte 1 de 8

E|---------------------------------------------------|
B|---------------------------------------------------|
G|---------------------------------------------------|
D|---------------------------------------------------|
A|----------7---9------------------------------------|
E|-7---10------------10------------------------------|

Parte 2 de 8

E|---------------------------------------------------|
B|---------------------------------------------------|
G|---------------------------------------------------|
D|---------------------------------------------------|
A|----------7---9------------------------------------|
E|-7---10------------10------------------------------|

Parte 3 de 8

E|---------------------------------------------------|
B|---------------------------------------------------|
G|---------------------------------------------------|
D|---------------------------------------------------|
A|----------7---9------------------------------------|
E|-7---10------------10------------------------------|

Parte 4 de 8

E|---------------------------------------------------|
B|---------------------------------------------------|
G|---------------------------------------------------|
D|---------------------------------------------------|
A|----------7---9------------------------------------|
E|-7---10------------10------------------------------|

Parte 5 de 8

E|---------------------------------------------------|
B|---------------------------------------------------|
G|---------------------------------------------------|
D|-9-9---7-7-----------------------------------------|
A|-------------9-9---7---5---------------------------|
E|---------------------------------------------------|

Parte 6 de 8

E|---------------------------------------------------|
B|---------------------------------------------------|
G|---------------------------------------------------|
D|-9-9---7-7-----------------------------------------|
A|-------------9-9---7---5---------------------------|
E|---------------------------------------------------|

Parte 7 de 8

E|---------------------------------------------------|
B|---------------------------------------------------|
G|---------------------------------------------------|
D|-9-9---7-7-----------------------------------------|
A|-------------9-9---7---5---------------------------|
E|---------------------------------------------------|

Parte 8 de 8

E|---------------------------------------------------|
B|---------------------------------------------------|
G|---------------------------------------------------|
D|-9-9---7-7-----------------------------------------|
A|-------------9-9---7---5---------------------------|
E|---------------------------------------------------|

[Guitarra 1]

Parte 1 de 4

E|---------------------------------------------------|
B|---------------------------------------------------|
G|---------------------------------------------------|
D|---------------------------------------------------|
A|---------------------------------------------------|
E|-7-7-7-7-7-7-7-7-7-7-7-7-7-5h7-7-7-7/17-17-17-19---|

Parte 2 de 4

E|---------------------------------------------------|
B|---------------------------------------------------|
G|---------------------------------------------------|
D|---------------------------------------------------|
A|---------------------------------------------------|
E|-19-19-17-17-17-19-19-19\7-7-7-7-7-7-7-7-7-7-7-7---|

Parte 3 de 4

E|---------------------------------------------------|
B|---------------------------------------------------|
G|---------------------------------------------------|
D|---------------------------------------------------|
A|---------------------------------------------------|
E|-5h7-7-7-7-/17-17-17--19-19-19--17\----------------|

Parte 4 de 4

E|---------------------------------------------------|
B|---------------------------------------------------|
G|---------------------------------------------------|
D|---------------------------------------------------|
A|---------------------------------------------------|
E|-5h7-7-7-7-/17-17-17--19-19-19--17\----------------|

[Guitarra 2]

Parte 1 de 3

         B5                           D5    G5   F#5  
E|---------------------------------------------------|
B|---------------------------------------------------|
G|-------------------------------------------12---11-|
D|-9-9-9-9-9-9-9-9-9-9-9-9-9-9-9-9---12-12---12---11-|
A|-9-9-9-9-9-9-9-9-9-9-9-9-9-9-9-9---12-12---10---9--|
E|-7-7-7-7-7-7-7-7-7-7-7-7-7-7-7-7---10-10-----------|

Parte 2 de 3

    D5    G5   F#5  
E|---------------------------------------------------|
B|---------------------------------------------------|
G|---------12---11-----------------------------------|
D|-12-12---12---11-----------------------------------|
A|-12-12---10---9------------------------------------|
E|-10-10---------------------------------------------|

Parte 3 de 3

    D5    G5   F#5  
E|---------------------------------------------------|
B|---------------------------------------------------|
G|---------12---11-----------------------------------|
D|-12-12---12---11-----------------------------------|
A|-12-12---10---9------------------------------------|
E|-10-10---------------------------------------------|

[Terceira Parte]

Everybody's trying to crack the jokes

And that to make you smile

Those that claim that they're not

Showing off are drowning in denial

But they're not half as bad as me

Say anything and I'll agree

'Cause when it comes to acting up

I'm sure I could write a book

[Guitarra 2]

Parte 1 de 4

E|---------------------------------------------------|
B|---------------------------------------------------|
G|---------------------------------------------------|
D|- 9-7---------------5------------------------------|
A|------9-7-5-7-7-5-7---5-4--------------------------|
E|---------------------------------------------------|

Parte 2 de 4

E|---------------------------------------------------|
B|---------------------------------------------------|
G|---------------------------------------------------|
D|-- 9-7---------------5-----------------------------|
A|-------9-7-5-7-7-5-7---5-4-------------------------|
E|-7-------------------------------------------------|

Parte 3 de 4

E|---------------------------------------------------|
B|---------------------------------------------------|
G|---------------------------------------------------|
D|-- 9-7---------------5-----------------------------|
A|-------9-7-5-7-7-5-7---5-4-------------------------|
E|-7-------------------------------------------------|

Parte 4 de 4

E|---------------------------------------------------|
B|---------------------------------------------------|
G|---------------------------------------------------|
D|-- 9-7---------------5-----------------------------|
A|-------9-7-5-7-7-5-7---5-4-------------------------|
E|-7-------------------------------------------------|

[Quarta Parte]

And now that you're more than a part in the play

It's slightly easier to think what to say

You had us all standing on our heads

Doing our best tricks, yeah

[Guitarra 1]

Parte 1 de 4

       E5         D5        B5      D5  E5 F#5 D5
E|---------------------------------------------------|
B|---------------------------------------------------|
G|-9-9-9-9-9--7-7-7-7-7-----------------9--11--------|
D|-9-9-9-9-9--7-7-7-7-7--9-9-9-9-9--12--9--11--12----|
A|-7-7-7-7-7--5-5-5-5-5--9-9-9-9-9--12--7--9---12----|
E|-----------------------7-7-7-7-7--10---------10----|

Parte 2 de 4

       E5         D5        B5      D5  E5 F#5 D5
E|---------------------------------------------------|
B|---------------------------------------------------|
G|-9-9-9-9-9--7-7-7-7-7-----------------9--11--------|
D|-9-9-9-9-9--7-7-7-7-7--9-9-9-9-9--12--9--11--12----|
A|-7-7-7-7-7--5-5-5-5-5--9-9-9-9-9--12--7--9---12----|
E|-----------------------7-7-7-7-7--10---------10----|

Parte 3 de 4

       E5         D5        B5      D5  E5 F#5 D5
E|---------------------------------------------------|
B|---------------------------------------------------|
G|-9-9-9-9-9--7-7-7-7-7-----------------9--11--------|
D|-9-9-9-9-9--7-7-7-7-7--9-9-9-9-9--12--9--11--12----|
A|-7-7-7-7-7--5-5-5-5-5--9-9-9-9-9--12--7--9---12----|
E|-----------------------7-7-7-7-7--10---------10----|

Parte 4 de 4

      E5         D5             F#5          E5 D5 B5
E|---------------------------------------------------|
B|---------------------------------------------------|
G|-9-9-9-9-9--7-7-7-7-7--11-11-11-11-11--11--9--7--4-|
D|-9-9-9-9-9--7-7-7-7-7--11-11-11-11-11--11--9--7--4-|
A|-7-7-7-7-7--5-5-5-5-5--9--9--9--9--9---9---7--5--2-|
E|---------------------------------------------------|

[Guitarra 2]

Parte 1 de 4

E|---------------------------------------------------|
B|---------------------------------------------------|
G|-9-11-9-7-9-11-9-7-------7-------------------------|
D|-------------------9-7-9---------------------------|
A|---------------------------------------------------|
E|---------------------------------------------------|

Parte 2 de 4

E|---------------------------------------------------|
B|---------------------------------------------------|
G|-9-11-9-7-9-11-9-7-------7-------------------------|
D|-------------------9-7-9---------------------------|
A|---------------------------------------------------|
E|---------------------------------------------------|

Parte 3 de 4

E|---------------------------------------------------|
B|---------------------------------------------------|
G|-9-11-9-7-9-11-9-7-------7-------------------------|
D|-------------------9-7-9---------------------------|
A|---------------------------------------------------|
E|---------------------------------------------------|

Parte 4 de 4

E|---------------------------------------------------|
B|---------------------------------------------------|
G|-9-11-9-7-9-11-9-7-11-11-11-11-11-11-9-7-----------|
D|-----------------------------------------9---------|
A|---------------------------------------------------|
E|---------------------------------------------------|

[Ponte]

[Guitarra 1]

Parte 1 de 4

  B5 D5  E5  F#5 D5
E|---------------------------------------------------|
B|---------------------------------------------------|
G|--------9--11--------------------------------------|
D|-9--12--9--11-12-----------------------------------|
A|-9--12--7--9--12-----------------------------------|
E|-7--10--------10-----------------------------------|

Parte 2 de 4

  B5 D5  E5  F#5 D5
E|---------------------------------------------------|
B|---------------------------------------------------|
G|--------9--11--------------------------------------|
D|-9--12--9--11-12-----------------------------------|
A|-9--12--7--9--12-----------------------------------|
E|-7--10--------10-----------------------------------|

Parte 3 de 4

  B5 D5  E5  F#5 D5
E|---------------------------------------------------|
B|---------------------------------------------------|
G|--------9--11--------------------------------------|
D|-9--12--9--11-12-----------------------------------|
A|-9--12--7--9--12-----------------------------------|
E|-7--10--------10-----------------------------------|

Parte 4 de 4

  B5 D5  E5  F#5 D5
E|---------------------------------------------------|
B|---------------------------------------------------|
G|--------9--11--------------------------------------|
D|-9--12--9--11-12-----------------------------------|
A|-9--12--7--9--12-----------------------------------|
E|-7--10--------10-----------------------------------|

[Guitarra 2]

E|---------------------------------------------------|
B|---------------------------------------------------|
G|---------------------------------------------------|
D|-------------------9~------------------------------|
A|---9----------9------9~---9------------------------|
E|-7---11-----7---11------7---11---------------------|

[Quinta Parte]

Never again, never again will there

Be another one quite as desirable as you!

[Guitarra 1]

Parte 1 de 3

    G5     F#5    B5    D5
E|---------------------------------------------------|
B|---------------------------------------------------|
G|-12-12---11-11---------7-7-------------------------|
D|-12-12---11-11---9-9---7-7-------------------------|
A|-10-10---9--9----9-9---5-5-------------------------|
E|-----------------7-7-------------------------------|

Parte 2 de 3

    G5     F#5    B5    D5
E|---------------------------------------------------|
B|---------------------------------------------------|
G|-12-12---11-11---------7-7-------------------------|
D|-12-12---11-11---9-9---7-7-------------------------|
A|-10-10---9--9----9-9---5-5-------------------------|
E|-----------------7-7-------------------------------|

Parte 3 de 3

    G5     F#5      B5   D5    G5    D5  B5
E|---------------------------------------------------|
B|---------------------------------------------------|
G|-12-12---11-11---------7-7---------7-7-------------|
D|-12-12---11-11---9-9---7-7---5-5---7-7--9----------|
A|-10-10---9--9----9-9---5-5---5-5---5-5--9----------|
E|-----------------7-7---------3-3--------7----------|

[Guitarra 2]

Parte 1 de 3

    G5     F#5    B5    D5
E|---------------------------------------------------|
B|---------------------------------------------------|
G|-12-12---11-11---------7-7-------------------------|
D|-12-12---11-11---9-9---7-7-------------------------|
A|-10-10---9--9----9-9---5-5-------------------------|
E|-----------------7-7-------------------------------|

Parte 2 de 3

    G5     F#5    B5    D5
E|---------------------------------------------------|
B|---------------------------------------------------|
G|-12-12---11-11---------7-7-------------------------|
D|-12-12---11-11---9-9---7-7-------------------------|
A|-10-10---9--9----9-9---5-5-------------------------|
E|-----------------7-7-------------------------------|

Parte 3 de 3

    G5     F#5      B5   D5    G5    D5  B5
E|---------------------------------------------------|
B|---------------------------------------------------|
G|-12-12---11-11---------7-7---------7-7--4----------|
D|-12-12---11-11---9-9---7-7---5-5---7-7--4----------|
A|-10-10---9--9----9-9---5-5---5-5---5-5--2----------|
E|-----------------7-7---------3-3-------------------|

[Sexta Parte]

One look sends it coursing through the veins

Oh how the feeling races

[Guitarra 1]

        B5        D5
E|---------------------------------------------------|
B|---------------------------------------------------|
G|---------------------------------------------------|
D|-9-9-9-9-9-9-9--12---------------------------------|
A|-9-9-9-9-9-9-9--12---------------------------------|
E|-7-7-7-7-7-7-7--10---------------------------------|

[Final]

Back up to their brains to

Form expressions on their stupid faces

[Guitarra 1]

Parte 1 de 2

        B5                           D5
E|---------------------------------------------------|
B|---------------------------------------------------|
G|---------------------------------------------------|
D|-9-9-9-9-9-9-9--12-x-12-x-12-x-12-x-12-x-12-x-12-x-|
A|-9-9-9-9-9-9-9--12-x-12-x-12-x-12-x-12-x-12-x-12-x-|
E|-7-7-7-7-7-7-7--10-x-10-x-10-x-10-x-10-x-10-x-10-x-|

Parte 2 de 2

   D5
E|---------------------------------------------------|
B|---------------------------------------------------|
G|---------------------------------------------------|
D|-12------------------------------------------------|
A|-12------------------------------------------------|
E|-10------------------------------------------------|

[Guitarra 2]

Parte 1 de 2

        B5                           D5
E|---------------------------------------------------|
B|---------------------------------------------------|
G|---------------------------------------------------|
D|-9-9-9-9-9-9-9--12-x-12-x-12-x-12-x-12-x-12-x-12-x-|
A|-9-9-9-9-9-9-9--12-x-12-x-12-x-12-x-12-x-12-x-12-x-|
E|-7-7-7-7-7-7-7--10-x-10-x-10-x-10-x-10-x-10-x-10-x-|

Parte 2 de 2

   D5
E|---------------------------------------------------|
B|---------------------------------------------------|
G|---------------------------------------------------|
D|-12------------------------------------------------|
A|-12------------------------------------------------|
E|-10------------------------------------------------|
00:00 / 00:00
Outros vídeos desta música
Repetir
Outros vídeos desta música
Composição de Alex Turner / Arctic Monkeys
Colaboração e revisão:
  • Monkeys Arctic
200 exibições
    • ½ Tom
    • Am
    • Bbm
    • Bm
    • Cm
    • C#m
    • Dm
    • Ebm
    • Em
    • Fm
    • F#m
    • Gm
    • G#m
  • Adicionar à lista

    0 comentários

    Ver todos os comentários

    Conseguiu tocar?

    0 Tocaram 0 Ainda não

    Grave um vídeo tocando You Probably Couldn’t See For The Lights But You Were Staring Straight At Me e nos envie!

    Entre para oCifra Club PRO

    Tenha acesso a benefícios exclusivos no App e no Site

    • Chega de anúncios

    • Prioridade de compra em lançamentos

    • Mais recursos no app do Afinador

    • Atendimento Prioritário

    • Descontos nos produtos Cifra Club

    • Ajude a produzir mais conteúdo

    00:00 / 00:00

    Cifra Club Pro

    Aproveite o Cifra Club com benefícios exclusivos e sem anúncios
    Cifra Club Pro
    Aproveite o Cifra Club com benefícios exclusivos e sem anúncios
    OK