Analua

Armandinho

Composição de: Armandinho / Bedai / Nê / Sander Froes / Vini
tom: A
[Intro] A  Bm7  D9
        A  Bm7  D9  A

E|------------------------------------------|
B|------------------------------------------|
G|------------------------------------------|
D|-----7------7----------7------7-----------|
A|-7-9----7-9---9-7--7-9----7-9---9-7-------|
E|------------------------------------------|

E|------------------------------------------|
B|------------------------------------------|
G|-------------9----------------7/11-9------|
D|-----7--7/11---11-9\-7------7-------------|
A|-7-9--------------------7-9---------------|
E|------------------------------------------|

E|------------------------------------------|
B|------------------------------------------|
G|------------------------------------------|
D|-----7------7----------7------7-----------|
A|-7-9----7-9---9-7--7-9----7-9---9-7-------|
E|------------------------------------------|

E|------------------------------------------|
B|------------------------------------------|
G|-------------9----------------------------|
D|-----7--7/11---11-9\-7------7-------------|
A|-7-9--------------------7-9---------------|
E|------------------------------------------|

[Primeira Parte]

     A
Porque você não sai
            Bm7
De trás da nuvem
                   D9
Pro mar fica mais lindo
            A
Só falta você!
                              Bm7
E a minh'alma fica mais tranquila
               D9
E a vida harmoniza
               A
Quando vejo você

[Pré-Refrão]

   Bm7          E7            C#m7  F#m7
E hoje eu caminhei a praia inteira
                Bm7
Com os pés na areia
     E7          A7M  A7
Coração em alto mar

[Refrão]

           D7M
Lembrar você me faz
           C#m7
Pensar besteira
                   Bm7
Vida é brisa passageira
 E7           A7M  A7
Não deixa passar  ôo
           D7M
Lembrar você me faz
           C#m7
Pensar besteira
                  Bm7
Praia brava lua cheia
 E7       A7M  E7
Cadê Ana Lua?

( A  Bm7  D9  A )

E|------------------------------------------|
B|------------------------------------------|
G|------------------------------------------|
D|-----7------7----------7------7-----------|
A|-7-9----7-9---9-7--7-9----7-9---9-7-------|
E|------------------------------------------|

E|------------------------------------------|
B|------------------------------------------|
G|-------------9----------------------------|
D|-----7--7/11---11-9\-7------7-------------|
A|-7-9--------------------7-9---------------|
E|------------------------------------------|

[Primeira Parte]

     A
Porque você não sai
            Bm7
De trás da nuvem
                   D9
Pro mar fica mais lindo
            A
Só falta você!
                              Bm7
E a minh'alma fica mais tranquila
               D9
E a vida harmoniza
               A
Quando vejo você

[Pré-Refrão]

   Bm7          E7            C#m7  F#m7
E hoje eu caminhei a praia inteira
                Bm7
Com os pés na areia
     E7          A7M  A7
Coração em alto mar

[Refrão]

           D7M
Lembrar você me faz
           C#m7
Pensar besteira
                   Bm7
Vida é brisa passageira
 E7           A7M  A7
Não deixa passar   ôo
           D7M
Lembrar você me faz
           C#m7
Pensar besteira
                  Bm7
Praia brava lua cheia
 E7       A7M  E7
Cadê Ana Lua?

[Final] A  Bm7  D9   
        A  Bm7  D9 
        A  Bm7  D9 
        A  Bm7  D9  A  

E|------------------------------------------|
B|------------------------------------------|
G|------------------------------------------|
D|-----7------7----------7------7-----------|
A|-7-9----7-9---9-7--7-9----7-9---9-7-------|
E|------------------------------------------|

E|------------------------------------------|
B|------------------------------------------|
G|-------------9----------------------------|
D|-----7--7/11---11-9\-7------7-------------|
A|-7-9--------------------7-9---------------|
E|------------------------------------------|
Página 1 / 1

Letras e título
Acordes e artista

resetar configurações
OK