Cifra Club

Aprenda

Analua

Armandinho

Tab de baixo: Principal
Intro:
G|-----------------------------------------------------------------------------------|
D|-------7-------7-------------7-------7-------------7------7----------7-------------|
A|---7h9-----7-9---9-7-----7h9-----7-9---9-7-----7h9----7-9--9-7---7h9--------0------|
E|-5-------------------5-7-------------------5-7-----------------5--------0-2---2~---|

G|-----------------------------------------------------------------------------------|
D|-------7-------7-------------7-------7-------------7------7----------7--7h9-7------|
A|---7h9-----7-9---9-7-----7h9-----7-9---9-7-----7h9----7-9--9-7---7h9----------7h9-7|
E|-5-------------------5-7-------------------5-7-----------------5-------------------|

"Por que você não sai..." 
G|-----------------------------------------------------------------------------9h11-7|
D|-------7-------7-------------7-------7-------------7------7----------7--7h9-7------|
A|---7h9-----7-9---9-7-----7h9-----7-9---9-7-----7h9----7-9--9-7---7h9---------------|
E|-5-------------------5-7-------------------5-7-----------------5-------------------|

G|-----------------------------------------------------------------------------------|
D|-------7-------7-------------7-------7-------------7------7----------7--7h9-7------|
A|---7h9-----7-9---9-7-----7h9-----7-9---9-7-----7h9----7-9--9-7---7h9----------7h9-7|
E|-5-------------------5-7-------------------5-7-----------------5-------------------|

"E hoje eu caminhei a praia inteira..." 
G|--------------------------------------------------------|
D|----------------11-9-7----------------------------------|
A|-----9--7-7~----------9-9~-------9--7-7-----------------|
E|-7-7---------9-9-------------7-7---7-----5-5-5-0-5~-----|

"Lembrar você me faz...................não deixa passar." 
G|--------------------------------------------------------|
D|--7---7-----------11-9-7------------9-------------------|
A|-5-5~---5-5--------------------------9-7-7--------12-12~|
E|-----5------5-9-9--------9-9--5-7-7--------5-5-5\-------|

"Lembrar você me faz........................cadê Analua?" 
G|--------------------------------------------------------|
D|--7---7-----------11-9-7------------9-------------------|
A|-5-5~---5-5--------------------------9-7-7--------------|
E|-----5------5-9-9--------9-9--5-7-7--------5-5~-5-2-0-0~|
Composição de Armandinho / Bedai / Nê / Sander Froes / Vini
Colaboração e revisão:
  • Guilherme Barnez
3.079 exibições

0 comentários

Mostrar mais comentários

Conseguiu tocar?

1 Tocaram 0 Ainda não

Grave um vídeo tocando Analua e mande pra gente!

00:00 / 00:00
outros vídeos desta música
repetir qualidade Automático
Outros vídeos desta música
00:00 / 00:00
Automático

Cifra Club Pro

Aproveite o Cifra Club com benefícios exclusivos e sem anúncios
7 dias grátis
Cifra Club Pro
Aproveite o Cifra Club com benefícios exclusivos e sem anúncios
7 dias grátis
OK