Cifra Club

Aprenda

Outra Vida

Armandinho

Tab de baixo: Principal
Mas no fim, vai deixar...

Talvez não seja nessa vida ainda...
G|----------------------------------------|
D|---------------------------------7---7~-|
A|--5~-5---3-5-5-5----5---------7----7----|
E|-------5----------5----5~-5-8-----------|   

Então a gente vai fugir pro mar...
G|------------------------|
D|---------8-7---7~---7---|
A|-----5-8-----7----7---7-|
E|-6-6--------------------| (3X)

Pode crer, que tudo vai dar certo...
G|--------------------------------------------|
D|--------------------------------------------|
A|-10----10--------------------0----------0---|
E|----10----10-8--8-8-9-10~-10---8-10~-10---8-|   


Refrão 2x:
 Uebaruieio... :
G|---|---------------|
D|---|--------7---7~-|
A|---|-----7----7----|
E|-5~|-5-8-----------|   

G|------------------------|
D|---------8-7---7~---7---|
A|-----5-8-----7----7---7-|
E|-6-6--------------------| (3X)

G|-----------------------------------------------|
D|-----------------------------------------------|
A|-10----10--------------------0----------0------|
E|----10----10-8--8-8-9-10~-10---8-10~-10---8-5~-|   

(Repete tudo)
Composição de Armandinho
Colaboração e revisão:
  • Guilherme Barnez
3.373 exibições

0 comentários

Ver todos os comentários
00:00 / 00:00
Outros vídeos desta música
Repetir Qualidade Automático
Outros vídeos desta música
00:00 / 00:00
Automático

Cifra Club Pro

Aproveite o Cifra Club com benefícios exclusivos e sem anúncios
Cifra Club Pro
Aproveite o Cifra Club com benefícios exclusivos e sem anúncios
OK