Cifra Club

Aprenda

Pescador

Armandinho

Tab de baixo: Principal
Intro
G|--------------------------
D|-----------4-2------------
A|----4--2--------4-2-------
E|--2-----------------4-2---

Base
G|----------------------------------------------------
D|------------------------------4---4-----------------
A|--------1-2/4~-2-4-2-4---6~-6---6-------------------
E|-2-2222------------------------------7~--7-9-7-9/2--

Refrão
G|----------------------------------------------------
D|------------------------------4---------------------
A|--------1-2/4~-2-4-2-4---6~-6---6-4-----------------
E|-2-2222------------------------------7~--7-9-7-9/2--

Fim
G|--------------------------
D|-----------4-2------------
A|----4--2--------4-2-------
E|--2-----------------4-2---
Composição de Armandinho
Colaboração e revisão:
  • Edson Flores
16.257 exibições

0 comentários

Mostrar mais comentários

Conseguiu tocar?

1 Tocaram 0 Ainda não

Grave um vídeo tocando Pescador e mande pra gente!

00:00 / 00:00
outros vídeos desta música
repetir qualidade Automático
Outros vídeos desta música
00:00 / 00:00
Automático

Cifra Club Pro

Aproveite o Cifra Club com benefícios exclusivos e sem anúncios
7 dias grátis
Cifra Club Pro
Aproveite o Cifra Club com benefícios exclusivos e sem anúncios
7 dias grátis
OK