Cifra Club

Aprenda

Toca Uma Regguera Aí

Armandinho

Tab de baixo: Principal
E--5-------5------------------------------------------------------------------
A----7---7---------5-5-7-7-5-------------------------------------------------------
D------7---------------------------------------------------------------------
G---------------------------------------------------------------------------

E--5-------5-----------/-------------------------------------------------------
A----7---7------------/--------------------------------------------------------
D------7-------------/------7--------------------------------------------------
G------------------7/7-6-6-------------------------------------------------------


Ae galera, corrigindo ae o que o amigo fez, acho que assim fica mais completo para tocar...
Abrax!!! 

G---------------------------------------------------------------------------
D----------7---7-----4---4--------------------------------------------------
A------------7---5-5---5----------------------------------------------------
E------5-5------------------------------------------------------------------

G-----------------------9-11-9----------------------------------------------
D----------7---7---4/12-----------------------------------------------------
A------------7---5----------------------------------------------------------
E------5-5------------------------------------------------------------------
Composição de Armandinho
Colaboração e revisão:
  • Banda Tomaroque
  • Vinicius doi
13.931 exibições

0 comentários

Mostrar mais comentários

Conseguiu tocar?

0 Tocaram 0 Ainda não

Grave um vídeo tocando Toca Uma Regguera Aí e mande pra gente!

00:00 / 00:00
outros vídeos desta música
repetir qualidade Automático
Outros vídeos desta música
00:00 / 00:00
Automático

Cifra Club Pro

Aproveite o Cifra Club com benefícios exclusivos e sem anúncios
7 dias grátis
Cifra Club Pro
Aproveite o Cifra Club com benefícios exclusivos e sem anúncios
7 dias grátis
OK