Cifra Club

Aprenda

Cê Ta Pensando Que Eu Sou Loki?

Arnaldo Baptista

Tab de baixo: Principal
G|---------|---------------|---------|-----|
D|-----3h5-|--5--5---------|---------|-----|
A|-3-3-----|-5----5-0--3-3-|-3-4--44-|-4-5-|
E|---------|---------------|---------|-----|

G|----------|-----|----------------|-----|
D|-6h7--4h5-|-----|----------------|-----|
A|----------|-5---|--3-------4--44-|-4-5-|
E|----------|---3-|-3---3---3------|-----|

G|----------|---------|------------|-------|-----|
D|-6h7--4h5-|-5-------|---5-6-7----|--7----|---7-|
A|----------|---5-6-7-|-7------7---|-7-7-5-|-5---|
E|----------|---------|----------5-|-------|-----|

G|------------|-------|------------|
D|-7-5----5---|-------|--------5-5-|
A|-------5----|--3--3-|-3-4---4----|
E|----------3-|-5-----|------------|

G|-----------|-------|-------------|-------|--7-----|
D|-----3-4-5-|-5-3-2-|-2--5-6-7----|--7----|-7--7-5-|
A|-5--5------|-------|---------7---|-7-7-5-|--------|
E|-----------|-------|-----------5-|-------|--------|

G|--------7-8-9--7----------------|------------|------|
D|-5---------------10-7\5---------|------3-4-5-|--5-3-|
A|----0-3-----------------7-5\3-0-|-5--5-------|-5----|
E|--------------------------------|------------|------|   

G|----------------|-------|-7---------|-----|---------|
D|-2--2--5-6-7----|--7----|--7-5--5---|-----|---------|
A|------------7---|-7-7-5-|-----------|---3-|-3--3-44-|
E|--------------5-|-------|---------3-|-5---|---------|

G|----------------|------|-------------|--------|
D|--------2-3-4-5-|--5-3-|-2-----5-7---|----7---|
A|-4---4-5--------|-5----|---5/7-----7-|-0-7--5-|
E|----------------|------|-------------|--------|

G|----------|-------|----------7-8-9\-|
D|---7--7-5-|-5-----|----5h7/10-------|
A|-5--------|-----3-|-5-7-------------|
E|----------|---3---|-----------------|

G|-----------7-|---------|---------------|------7-|
D|-----7--7-5--|-7-5-3-2-|-2--5-6-7------|-----7--|
A|-5--5--------|---------|------------7--|-7-5----|
E|-------------|---------|-------------5-|--------|

G|---------|------------------|
D|-7-5--55-|---4h5----4h5-----|
A|---------|-3-----4------4-5-|
E|---------|------------------|

G|----|---------|--------|----------|--------|
D|--3-|-4h5-----|--------|----------|--7-----|
A|-5--|------5--|-3------|----------|-7--7-5-|
E|----|-------3-|--0--00-|-3-4-5--5-|--------|

G|--7------|----------------|-------------|
D|-7---7-5-|--5-3---2-------|-------------|
A|---------|-5-----5--3--33-|-3-44--44--0-|
E|---------|----------------|-------------|

G|----------|--------|------------|
D|---3--3-5-|-5--3-2-|-2----------|
A|-5--------|--------|---3-3-4--4-|
E|----------|--------|------------|

G|------------------|---7-8-9--10-9-7------------|
D|-----6h7--4h5---5-|-----------------10-7\5-----|
A|-4-5-----------5--|-3----------------------7---|
E|------------------|--------------------------5-|

G|------------|--------|---------------|-----|
D|-----7--7-5-|--5-3-2-|-2--5-6-7------|-----|
A|-5--5-------|-5------|-----------7---|-7-5-|
E|------------|--------|-------------5-|-----|

G|-------|--------|------------|-------|
D|--7--5-|-5------|------------|-------|
A|-5-----|--5-0-3-|-3--3-4--44-|-3h4-0-|
E|-------|--------|------------|-------|

G|-------|------------|------------|---------|
D|-----3-|-3-4-5--5-3-|-3-2--------|---------|
A|-5--5--|------------|----2-------|--4--4-5-|
E|-------|------------|------0-3-5-|-5-------|

G|--7------|---------------|--------------|
D|-7---7-5-|--5-3---2------|--------------|
A|---------|-5-----5--3-3--|--3-3---3h4-0-|
E|---------|-------------3-|-3-3----------|

G|-------|-----------|--------|-------5h6-2--------|
D|-----3-|-3-5---5-3-|--2--22-|-5-6-7------2-------|
A|-5--5--|-----------|--------|--------------0-7-5-|
E|-------|-----------|-1------|--------------------|

G|--7------|--4--4-55555555-5-3----|
D|-7---7-5-|-5-----------------5-3-|
A|---------|-----------------------|
E|---------|-----------------------|

G|---|----------|--------------|---------|---------|
D|-3-|-3-4--3-4-|-4-5--5-6-7-7-|------7--|--7--7-5-|
A|---|----------|--------------|-7---7-5-|-5-------|
E|---|----------|--------------|--5------|---------|

G|--4--7-|-5-------------------|---------|
D|-5-----|--5-6-7--5------7----|--7--7-5-|
A|-------|--------7-7-5-4--4-5-|-5-------|
E|-------|---------------------|---------|

G|------|----------------|--------|--7-----------|
D|--5-3-|-2---22--5-6-77-|-5-6-77-|-7-7-7-5---55-|
A|-5----|----2-----------|--------|----5---------|
E|------|----------------|--------|--------------|
Composição de Arnaldo Baptista
Colaboração e revisão:
  • marcos lima
29 exibições

0 comentários

Ver todos os comentários

Conseguiu tocar?

0 Tocaram 0 Ainda não

Grave um vídeo tocando Cê Ta Pensando Que Eu Sou Loki? e nos envie!

00:00 / 00:00
Outros vídeos desta música
Repetir Qualidade Automático
Outros vídeos desta música
00:00 / 00:00
Automático

Cifra Club Pro

Aproveite o Cifra Club com benefícios exclusivos e sem anúncios
Cifra Club Pro
Aproveite o Cifra Club com benefícios exclusivos e sem anúncios
OK