Cifra Club

Super Mario Bros Theme(overture)

Arranjos fingerstyle

Cifra: Principal (violão e guitarra)
tom: A (forma dos acordes no tom de G) Capotraste na 2ª casa
|-12-12--12-----12-|--15--------|---8--------5-|--5--7--6-5--|---0--3-5--1-3--|
|------------13----|------------|------8--5----|-------------|----------------|
|-11-11--11--11-11-|--12----12--|-o------------|-------------|-0-0--4-5--2-1--|
|------------------|------------|-o-5--------3-|--3--5--4-3--|-2--------------|
|------------------|--10----10--|------7--3----|-------------|----------------|
|-10-10--10--10-10-|------------|--------------|-------------|----------------|

|--0-------------|-----3-2-1-----0-|----------------|----3-2-1-----0-|
|-----1-3-0------|-----------4-----|------1---1-3---|----------4-----|
|--0----------o--|-o-----0-----5---|----2---2-------|------------5---|
|-----2-3-0---o--|-o---------------|--3-------------|----------------|
|----------------|---3-------------|----------------|--3-------------|
|----------------|-----------------|----------------|----------------|

|---8---8--8-----|---3-2-1-----0--|---------------|-----------|---------------|
|----------------|---------4------|---------------|----4------|---------------|
|---10--10-10----|-----0------5---|------1---1-3--|----5---7--|-------------o-|
|-------------5--|----------------|----2---2------|--------8--|-10--5-5-----o-|
|---8---8--8-----|-3--------------|--3------------|-----------|-10------3-----|
|----------------|----------------|---------------|----4---6--|-8-------------|

|----------------|-0---------------|----------------|----------------|
|----------------|---1-------------|----------------|----------------|
|-5--5--5----5-7-|------2--0-------|-5--5--5----5-7-|----------------|
|-6--6--6--------|-----------------|-6--6--6--------|-----5----------|
|----------6-----|---3--3----------|----------6-----|--3-----3-------|
|-4--------------|-----------------|-4--------------|----------------|

|----------------|-0--------------|-12-12--12-----12-|--15---------|
|----------------|---1------------|------------13----|-------------|
|-5--5--5----5-7-|------2--0------|-11-11--11--11-11-|--12----12---|
|-6--6--6--------|----------------|------------------|-------------|
|----------6-----|-3----3---------|------------------|--10----10---|
|-4--------------|----------------|-10-10--10--10-10-|-------------|

|---8--------5-|--5--7--6-5--|---0--3-5--1-3--|--0-------------|
|------8--5----|-------------|----------------|-----1-3-0------|
|-o------------|-------------|-0-0--4-5--2-1--|--0----------o--|
|-o-5--------3-|--3--5--4-3--|-2--------------|-----2-3-0---o--|
|------7--3----|-------------|----------------|----------------|
|--------------|-------------|----------------|----------------|

|---0-------------|-----1--1-------|---5-5-5-3-1----|--0-------------|
|------1----------|-----1--1-------|-0-6-6-6-5-3----|-----1----------|
|-o-------0---1---|--2--------2----|-0--------------|--------2--0----|
|-o---------------|--3--------3----|----------------|--------3-----3-|
|---3-----3---3---|----------------|----------------|--3-------------|
|-----------------|--1-----------1-|-3--------------|----------------|

|--0-------------|-----1--1-------|---1--1--1--0---|----------------|
|-----1----------|-----1--1-------|-0-3--3--3--1-3-|-1--------------|
|--------0---1---|--2--------2----|-0------------4-|----0---------o-|
|----------------|--3--------3----|----------------|-------2------o-|
|--3-----3---3---|----------------|----------------|-3--------3-----|
|----------------|--1-----------1-|-3--------------|----------------|

|----------------|-0---------------|----------------|----------------|
|----------------|---1-------------|----------------|----------------|
|-5--5--5----5-7-|------2--0-------|-5--5--5----5-7-|----------------|
|-6--6--6--------|-----------------|-6--6--6--------|-----5----------|
|----------6-----|---3--3----------|----------6-----|--3-----3-------|
|-4--------------|-----------------|-4--------------|----------------|

|----------------|-0--------------|-12-12--12-----12-|--15---------|
|----------------|---1------------|------------13----|-------------|
|-5--5--5----5-7-|------2--0------|-11-11--11--11-11-|--12----12\--|
|-6--6--6--------|----------------|------------------|-------------|
|----------6-----|-3----3---------|------------------|--10----10\--|
|-4--------------|----------------|-10-10--10--10-10-|-------------|

|-0-------------|-----1--1-------|---5-5-5-3-1----|--0-------------|
|----1----------|-----1--1-------|-0-6-6-6-5-3----|-----1----------|
|-------0---1---|--2--------2----|-0--------------|--------2--0----|
|---------------|--3--------3----|----------------|--------3-----3-|
|-3-----3---3---|----------------|----------------|--3-------------|
|---------------|--1-----------1-|-3--------------|----------------|

|--0-------------|-----1--1-------|---1--1--1--0---|---------------|
|-----1----------|-----1--1-------|-0-3--3--3--1-3-|-1-------------|
|--------0---1---|--2--------2----|-0------------4-|----0----------|
|----------------|--3--------3----|----------------|-------2-------|
|--3-----3---3---|----------------|----------------|-3--------3----|
|----------------|--1-----------1-|-3--------------|---------------|

Composição de Eu '-'
Colaboração e revisão:
  • Luiz Carlos
18.274 exibições
    • ½ Tom
    • A
    • Bb
    • B
    • C
    • Db
    • D
    • Eb
    • E
    • F
    • F#
    • G
    • Ab
  • Adicionar à lista

    0 comentários

    Ver todos os comentários

    Conseguiu tocar?

    7 Tocaram 7 Ainda não

    Grave um vídeo tocando Super Mario Bros Theme(overture) e nos envie!

    00:00 / 00:00
    Outros vídeos desta música
    Repetir Qualidade Automático
    Outros vídeos desta música
    00:00 / 00:00
    Automático

    Cifra Club Pro

    Aproveite o Cifra Club com benefícios exclusivos e sem anúncios
    Cifra Club Pro
    Aproveite o Cifra Club com benefícios exclusivos e sem anúncios
    OK