Cifra Club

In Dying Days

As Blood Runs Black

Cifra: Principal (violão e guitarra)
Tom: C
Tuning: Both guitars - Drop D, down one step (C-G-C-F-A-D)

Pinch Harmonic = *
Vibrato = v
Slide Up = /
Slide Down = \
Palm Mute = x
Ghost Notes in Parenthesis = ( )

Intro:
   Guitar I
D |--------------------------------------------------------------------------------|
A |--------------------------------------------------------------------------------|
F |--------------------------------------------------------------------------------|
C |--------------------------------------------------------------------------------|
G |-5v------5v------8---7---10---8---7h8p7---------7h8---5h7p5---------5h7---4h5p4-|
C |-----000-----000---0---0----0---0--------8--888-----8--------7--777-----7-------|


 Guitar II
D |-----------------------------------------------------------------------|
A |-----------------------------------------------------------------------|
F |-----------------------------------------------------------------------|
C |-0-------------(0)--------------8-------------------7------------------|
G |-0-------------(0)--------------8-------------------7---------------7\-|
C |-0-------------(0)--------------8-------------------7---------------8\-|

   Guitar I
D |-------------------------------------------------------------------------------------|
A |-------------------------------------------------------------------------------------|
F |-------------------------------------------------------------------------------------|
C |-------------------------------------------------------------------------------------|
G |-8v------8v------12h13---13h15---12h13p12p10-----1010101212121313131212121010108887*-|
C |-----000-----000-------0-------0--------------888------------------------------------|


 Guitar II
D |---------------------------------------------------------------------|
A |---------------------------------------------------------------------|
F |---------------------------------------------------------------------|
C |---------------------------------------------------------------------|
G |-5v------5v------8h10---10h12---8h10p8p7-----7778881010108887775554*-|
C |-----000-----000------0-------0-----------888------------------------|


   Guitar I
D |------------------------------------------------------------------------------------------|
A |------------------------------------------------------------------------------------------|
F |------------------------------------------------------------------------------------------|
C |------------------------------------------------------------------------------------------|
G |-8v------8v------12---10---13---12---10h12p10---------10h12---8h10p8---------8h10---7h8p7-|
C |-----000-----000----0----0----0----0----------8--888--------8---------7--777------7-------|


  Guitar II
D |---------------------------------------------------------------------------------|
A |---------------------------------------------------------------------------------|
F |---------------------------------------------------------------------------------|
C |---------------------------------------------------------------------------------|
G |-5v------5v------8---7---10---8---7h8p7----------7h8---5h7p5---------5h7---4h5p4-|
C |-----000-----000---0---0----0---0--------8--888------8--------7--777-----7-------|


   Guitar I
D |-------------------------------------------------------------------------------------|
A |-------------------------------------------------------------------------------------|
F |-------------------------------------------------------------------------------------|
C |-------------------------------------------------------------------------------------|
G |-8v------8v------12h13---13h15---12h13p12p10-----1010101212121313131212121010108887*-|
C |-----000-----000-------0-------0--------------888------------------------------------|


 Guitar II
D |---------------------------------------------------------------------|
A |---------------------------------------------------------------------|
F |---------------------------------------------------------------------|
C |---------------------------------------------------------------------|
G |-5v------5v------8h10---10h12---8h10p8p7-----7778881010108887775554*-|
C |-----000-----000------0-------0-----------888------------------------|
PM|-----xxx-----xxx------x-------x--------------------------------------|




   Guitars I, II
D |----------------------------------------------------|
A |----------------------------------------------------|
F |----------------------------------------------------|
C |-0----(0)----(0)----(0)----(0)----(0)----(0)--------|
G |-0----(0)----(0)----(0)----(0)----(0)----(0)----19\-|
C |-0----(0)----(0)----(0)----(0)----(0)----(0)----20\-|
           End Intro
Verse I:
   Guitars I, II
D |------------------------------------------------------------------|
A |------------------------------------------------------------------|
F |------------------------------------------------------------------|
C |------------------------------------------------------------------|
G |-5-----5---5---8---7---10---8p7------5---5---5h7------4---4---4h5-|
C |---0-0---0---0---0---0----0------8-8---8---8------7-7---7---7-----|

   Guitars I, II
D |---------------------------------------------------------------|
A |---------------------------------------------------------------|
F |---------------------------------------------------------------|
C |---------------------------------------------------------------|
G |-5-----5---5---8h12-8h12-7h10-7h10-----7778881010108887775554*-|
C |---0-0---0---0----------------------888------------------------|





   Guitar I
D |-----------------------------------------------------------------------|
A |-----------------------------------------------------------------------|
F |-----------------------------------------------------------------------|
C |-----------------------------------------------------------------------|
G |-8-----8---8---12---10---13---12p10------8---8---8h10------7---7---7h8-|
C |---0-0---0---0----0----0----0--------8-8---8---8-------7-7---7---7-----|

  Guitar II
D |------------------------------------------------------------------|
A |------------------------------------------------------------------|
F |------------------------------------------------------------------|
C |------------------------------------------------------------------|
G |-5-----5---5---8---7---10---8p7------5---5---5h7------4---4---4h5-|
C |---0-0---0---0---0---0----0------8-8---8---8------7-7---7---7-----|


   Guitar I
D |------------------------------------------------------------------------------|
A |------------------------------------------------------------------------------|
F |------------------------------------------------------------------------------|
C |------------------------------------------------------------------------------|
G |-8-----8---8---13h15-13h15-10h13-10h13----1010101212121313131212121010108887*-|
C |---0-0---0---0-------------------------888------------------------------------|


 Guitar II
D |---------------------------------------------------------------|
A |---------------------------------------------------------------|
F |---------------------------------------------------------------|
C |---------------------------------------------------------------|
G |-5-----5---5---8h12-8h12-7h10-7h10-----7778881010108887775554*-|
C |---0-0---0---0----------------------888------------------------|
         End Verse I



Verse II:
   Guitar I
D |----------------------------------------------------------------|
A |----------------------------------------------------------------|
F |----------------------------------------------------------------|
C |----------------------------------------------------------------|
G |-----5---4h5---5h7---7h8---8h10------8---7h8---8h10---8p7---5p4-|
C |-0-0---0-----0-----0-----0-------0-0---0-----0------0-----0-----|
  Guitar II

  Guitars I, II
D |----------------------------------------------------------------|
A |----------------------------------------------------------------|
F |----------------------------------------------------------------|
C |----------------------------------------------------------------|
G |-----5---4h5---5h7---7h8---8h10------8---7h8---8h10---8p7---4*--|
C |-0-0---0-----0-----0-----0-------0-0---0-----0------0-----0-----|
PM|-x-x---x-----x-----x-----x-------x-x---x-----x------x-----x-----|

   Guitars I, II
D |----------------------------------------------------------------|
A |----------------------------------------------------------------|
F |----------------------------------------------------------------|
C |----------------------------------------------------------------|
G |-----5---4h5---5h7---7h8---8h10------8---7h8---8h10---8p7---5p4-|
C |-0-0---0-----0-----0-----0-------0-0---0-----0------0-----0-----|

          End Verse II










Verse III:
   Guitars I, II
D |------------------------------------------------------------------|
A |------------------------------------------------------------------|
F |------------------------------------------------------------------|
C |------------------------------------------------------------------|
G |-5-----5---5---8---7---10---8p7------5---5---5h7------4---4---4h5-|
C |---0-0---0---0---0---0----0------8-8---8---8------7-7---7---7-----|


   Guitars I, II
D |---------------------------------------------------------------|
A |---------------------------------------------------------------|
F |---------------------------------------------------------------|
C |---------------------------------------------------------------|
G |-5-----5---5---8h12-8h12-7h10-7h10-----7778881010108887775554*-|
C |---0-0---0---0----------------------888------------------------|


   Guitar I
D |-----------------------------------------------------------------------|
A |-----------------------------------------------------------------------|
F |-----------------------------------------------------------------------|
C |-----------------------------------------------------------------------|
G |-8-----8---8---12---10---13---12p10------8---8---8h10------7---7---7h8-|
C |---0-0---0---0----0----0----0--------8-8---8---8-------7-7---7---7-----|


 Guitar II
D |------------------------------------------------------------------|
A |------------------------------------------------------------------|
F |------------------------------------------------------------------|
C |------------------------------------------------------------------|
G |-5-----5---5---8---7---10---8p7------5---5---5h7------4---4---4h5-|
C |---0-0---0---0---0---0----0------8-8---8---8------7-7---7---7-----|




   Guitar I
D |------------------------------------------------------------------------------|
A |------------------------------------------------------------------------------|
F |------------------------------------------------------------------------------|
C |------------------------------------------------------------------------------|
G |-8-----8---8---13h15-13h15-10h13-10h13----1010101212121313131212121010108887*-|
C |---0-0---0---0-------------------------888------------------------------------|


  Guitar II
D |---------------------------------------------------------------|
A |---------------------------------------------------------------|
F |---------------------------------------------------------------|
C |---------------------------------------------------------------|
G |-5-----5---5---8h12-8h12-7h10-7h10-----7778881010108887775554*-|
C |---0-0---0---0----------------------888------------------------|

       End Verse III
Verse IV:
   Guitar I
D |-----------------------------------------------------------------------------------|
A |----------------------------------------------------------151515101010-10h11p10-8*-|
F |-----------------------------------------------------------------------------------|
C |-----------------------------------------------------------------------------------|
G |---888101010121212---888101010121212---101010121212131313--------------------------|
C |-0-----------------7-----------------8---------------------------------------------|

 Guitar II
D |-----------------------------------------------------------|
A |-----------------------------------------------------------|
F |-----------------------------------------------------------|
C |----------------------------------------121212777-7h8p7-5*-|
G |---555777888---555777888---777888101010--------------------|
C |-0-----------7-----------8---------------------------------|
End Verse IV




Breakdown Part I:
   Guitars I, II
D |----------------------------------|
A |----------------------------------|
F |----------------------------------|
C |----------------------------------|
G |-0000--0000-0000--0000--000-0-19\-|
C |-0000--0000-0000--0000--000-0-20\-|

   Guitars I, II
D |-------------------------------------------------------------------------|
A |-------------------------------------------------------------------------|
F |-------------------------------------------------------------------------|
C |-------------------------------------------------------------------------|
G |-0000--0000-0000-0-0000--0000-0000-0-0000--0000-0000-0-0000--0000-0000-0-|
C |-0000--0000-0000-0-0000--0000-0000-0-0000--0000-0000-0-0000--0000-0000-0-|


   Guitars I, II
D |-------------------------------------------------------------------------------------------------------|
A |-------------------------------------------------------------------------------------------------------|
F |-------------------------------------------------------------------------------------------------------|
C |-------------------------------------------------------------------------------------------------------|
G |-0000--0000-0000-0-0000--0000-0000-0-0000--0000-0000-0-0000--0000-000-0-0------------------------------|
C |-0000--0000-0000-0-0000--0000-0000-0-0000--0000-0000-0-0000--0000-000-0-0--------------------------11\-|

                                                                                   End Breakdown Part I
Breakdown Part II:
   Guitars I, II
D |----------------------------------------------------------------------------|
A |----------------------------------------------------------------------------|
F |----------------------------------------------------------------------------|
C |----------------------------------------------------------------------------|
G |-0-0-0-0-0----0-0-0-0-0--0-0-0-0-0--0--0-0-0-0-0----0-0-0-0-0--0-0-0-0-0--0-|
C |-0-0-0-0-0----0-0-0-0-0--0-0-0-0-0--0--0-0-0-0-0----0-0-0-0-0--0-0-0-0-0--0-|


   Guitars I, II
D |-----------------------------------------------------------------------------|
A |-----------------------------------------------------------------------------|
F |-----------------------------------------------------------------------------|
C |-----------------------------------------------------------------------------|
G |-0-0-0-0-0----0-0-0-0-0--0-0-0-0-0--0--0-0-0-0-0----0-0-0-0-0--0-0-0-0-0--7\-|
C |-0-0-0-0-0----0-0-0-0-0--0-0-0-0-0--0--0-0-0-0-0----0-0-0-0-0--0-0-0-0-0--8\-|


   Guitars I, II
D |----------------------------------------------------------------------------|
A |----------------------------------------------------------------------------|
F |----------------------------------------------------------------------------|
C |----------------------------------------------------------------------------|
G |-1-1-1-1-1----1-1-1-1-1--1-1-1-1-1--1--1-1-1-1-1----1-1-1-1-1--1-1-1-1-1--1-|
C |-1-1-1-1-1----1-1-1-1-1--1-1-1-1-1--1--1-1-1-1-1----1-1-1-1-1--1-1-1-1-1--1-|

                                                        End Breakdown Part II
   Guitar II
D |---------------------------|
A |---------------------------|
F |---------------------------|
C |-5-8-7---7-5-----7-5-------|
G |-------8-----8-7-----8-7-5-|
C |---------------------------|














Verse V:
   Guitar I
D |----------------------------------------------------------------|
A |----------------------------------------------------------------|
F |----------------------------------------------7h10p7h10-6h9p6h9-|
C |----------------------------------------------------------------|
G |-------0-------0---0-------5-7--------0---0---------------------|
C |-0-0-0-0---0-0-0-0-0-0-5-7------0-0-0-0-0-0-0-------------------| x4

  Guitar II
D |--------------------------------------------------------------|
A |--------------------------------------------------------------|
F |--------------------------------------------------------------|
C |--------------------------------------------------------------|
G |-------0-------0---0-------5-7--------0---0---5h8p5h8-4h7p4h7-|
C |-0-0-0-0---0-0-0-0-0-0-5-7------0-0-0-0-0-0-0-----------------| x4

       End Verse V
Verse VI:
   Guitar I
D |----------------------------------------------------------|
A |----------------------------------------------------------|
F |----------------------------------------7h10p7h10-6h9p6h9-|
C |----------------------------------------------------------|
G |---555444555777555777888777888101010888-------------------|
C |-0--------------------------------------------------------|

 Guitar II
D |--------------------------------------------------------|
A |--------------------------------------------------------|
F |--------------------------------------------------------|
C |--------------------------------------------------------|
G |---555444555777555777888777888101010888-5h8p5h8-4h7p4h7-|
C |-0------------------------------------------------------|




   Guitar I
D |----------------------------------------------------|
A |----------------------------------------------------|
F |----------------------------------7h10p7h10-6h9p6h9-|
C |----------------------------------------------------|
G |---5554445557775557778887775554*--------------------|
C |-0--------------------------------------------------|

   Guitar II
D |--------------------------------------------------|
A |--------------------------------------------------|
F |--------------------------------------------------|
C |--------------------------------------------------|
G |---5554445557775557778887775554*--5h8p5h8-4h7p4h7-|
C |-0------------------------------------------------|
                                        End Verse VI
Verse VII:
   Guitars I, II
D |------------------------------------------------------------------|
A |------------------------------------------------------------------|
F |------------------------------------------------------------------|
C |------------------------------------------------------------------|
G |-5-----5---5---8---7---10---8p7------5---5---5h7------4---4---4h5-|
C |---0-0---0---0---0---0----0------8-8---8---8------7-7---7---7-----|


   Guitars I, II
D |---------------------------------------------------------------|
A |---------------------------------------------------------------|
F |---------------------------------------------------------------|
C |---------------------------------------------------------------|
G |-5-----5---5---8h12-8h12-7h10-7h10-----7778881010108887775554*-|
C |---0-0---0---0----------------------888------------------------|






   Guitar I
D |-----------------------------------------------------------------------|
A |-----------------------------------------------------------------------|
F |-----------------------------------------------------------------------|
C |-----------------------------------------------------------------------|
G |-8-----8---8---12---10---13---12p10------8---8---8h10------7---7---7h8-|
C |---0-0---0---0----0----0----0--------8-8---8---8-------7-7---7---7-----|


 Guitar II
D |------------------------------------------------------------------|
A |------------------------------------------------------------------|
F |------------------------------------------------------------------|
C |------------------------------------------------------------------|
G |-5-----5---5---8---7---10---8p7------5---5---5h7------4---4---4h5-|
C |---0-0---0---0---0---0----0------8-8---8---8------7-7---7---7-----|

   Guitar I
D |------------------------------------------------------------------------------|
A |------------------------------------------------------------------------------|
F |------------------------------------------------------------------------------|
C |------------------------------------------------------------------------------|
G |-8-----8---8---13h15-13h15-10h13-10h13----101010121212131313121212-10--8v--7v-|
C |---0-0---0---0-------------------------888------------------------------------|

 Guitar II
D |-----------------------------------------------------------------|
A |-----------------------------------------------------------------|
F |-----------------------------------------------------------------|
C |-----------------------------------------------------------------|
G |-5-----5---5---8h12-8h12-7h10-7h10-----777888101010888-7--5v--4v-|
C |---0-0---0---0----------------------888--------------------------|

           End Verse VII:



Outro:
   Guitar I
D |---------------------------------------------------------------------------------------------|
A |---------------------------------------------------------------------------------------------|
F |---------------------------------------------------------------------------------------------|
C |---------------------------------------------------------------------------------------------|
G |-8v------8v-------8/12--10--12--12/13--12--10h12p0---------10h12---8h10---------8h10---7h8p7-|
C |-----000-----000------------------------------------8--888---------------7--777--------------|

 Guitar II
D |-------------------------------------------------------------------------------------|
A |-------------------------------------------------------------------------------------|
F |-------------------------------------------------------------------------------------|
C |-------------------------------------------------------------------------------------|
G |-5v------5v-------5/8--7--8--8/10--8--7h8p0---------7h8---5h7p5----------5h7---4h5p4-|
C |-----000-----000-----------------------------8--888--------------7--777--------------|

   Guitar I
D |-------------------------------------------------------------------------------------------|
A |-------------------------------------------------------------------------------------------|
F |-------------------------------------------------------------------------------------------|
C |-------------------------------------------------------------------------------------------|
G |-8v------8v------12h13---12h15---12h13p12p10----13/15--13--12h13p12----12/13--12--10h12p10-|
C |-----000-----000------------------------------8----------------------7---------------------|


   Guitar II
D |--------------------------------------------------------------------------------|
A |--------------------------------------------------------------------------------|
F |--------------------------------------------------------------------------------|
C |--------------------------------------------------------------------------------|
G |-5v------5v------8h10---10h12---8h10p8p7----10/12--10--8h10p8----8/10--8--7h8p7-|
C |-----000-----000--------------------------8--------------------7----------------|


   Guitar I
D |---------------------------------------------------------------------------------------------|
A |---------------------------------------------------------------------------------------------|
F |---------------------------------------------------------------------------------------------|
C |---------------------------------------------------------------------------------------------|
G |-8v------8v-------8/12--10--12--12/13--12--10h12p0---------10h12---8h10---------8h10---7h8p7-|
C |-----000-----000------------------------------------8--888---------------7--777--------------|


 Guitar II
D |-------------------------------------------------------------------------------------|
A |-------------------------------------------------------------------------------------|
F |-------------------------------------------------------------------------------------|
C |-------------------------------------------------------------------------------------|
G |-5v------5v-------5/8--7--8--8/10--8--7h8p0---------7h8---5h7p5----------5h7---4h5p4-|
C |-----000-----000-----------------------------8--888--------------7--777--------------|


   Guitar I
D |-------------------------------------------------------------------------------------------|
A |-------------------------------------------------------------------------------------------|
F |-------------------------------------------------------------------------------------------|
C |-------------------------------------------------------------------------------------------|
G |-8v------8v------12h13---12h15---12h13p12p10----13/15--13--12h13p12----12/13--12--10h12p10-|
C |-----000-----000------------------------------8----------------------7---------------------|

 Guitar II
D |--------------------------------------------------------------------------------|
A |--------------------------------------------------------------------------------|
F |--------------------------------------------------------------------------------|
C |--------------------------------------------------------------------------------|
G |-5v------5v------8h10---10h12---8h10p8p7----10/12--10--8h10p8----8/10--8--7h8p7-|
C |-----000-----000--------------------------8--------------------7----------------|



   Guitars I, II
D |------------------------------------------------|
A |------------------------------------------------|
F |------------------------------------------------|
C |-0----(0)----(0)----(0)----(0)----(0)----(0)----|
G |-0----(0)----(0)----(0)----(0)----(0)----(0)----|
C |-0----(0)----(0)----(0)----(0)----(0)----(0)----|
                                         End Outro
                                         Segue Into “My Fears Have Become Phobias"
exibições 2.407
Acordes para:
    Composição: As Blood Runs Black Colaboração e revisão:
    • Diego Siqueira

    0 comentários

    mostrar mais comentários

    Conseguiu tocar?

    0 tocaram 0 ainda não

    Grave um vídeo tocando In Dying Days e mande pra gente!

    00:00 / 00:00
    outros vídeos desta música
    repetir qualidade Automático
    Outros vídeos desta música
    00:00 / 00:00
    Automático
    OK