Cifra Club

Aprenda

Of Want And Misery The Nothing That Kills Solo 1

As Cities Burn

Cifra: Principal (violão e guitarra)
tom: D
album- on, i loved you at your darkest

    I know this is a pretty short tab, but i just felt like 
putting it out there.

solo 1
Guitar 1 (2:18)
E-----------------------------------------------------------10-----------|
B---10/12-------------12-12-12\10-10-10/14--12\10-10\7-------------------|
G---------------7--------------------------------------------------------|
D------------------------------------------------------------------------|
A------------------------------------------------------------------------|
E------------------------------------------------------------------------|

E------------------------------------------------------------------------|
B---7b-------------------------------------------------------------------|
G-------9--9\7--7--9/11-----6b-------------------------------------------|
D--------------------------------9-9\7---9\7-----------------------------|
A------------------------------------------------------------------------|
E------------------------------------------------------------------------|


   Then comes guitar 1 and 2 doing this part
from my other tab.
Guitar 1 and 2
E------------------------------------------------------------------------|
B------------------------------------------------------------------------|
G-------------0----------------------------------------------------------|
D------4-----------------------------------------------------------------|
A--2---------------------------------------------------------------------|
E------------------------------------------------------------------------|



once again, short tab but w/e. i havent tabed in a while. 

bend-           b
slide up-       /
slide down-     \
palm mute     .....
harmonic        *
pinch harmonic (*)
Composição de As Cities Burn
425 exibições
    • ½ Tom
    • A
    • Bb
    • B
    • C
    • Db
    • D
    • Eb
    • E
    • F
    • F#
    • G
    • Ab
  • Adicionar à lista

    0 comentários

    Ver todos os comentários

    Conseguiu tocar?

    0 Tocaram 0 Ainda não

    Grave um vídeo tocando Of Want And Misery The Nothing That Kills Solo 1 e nos envie!

    00:00 / 00:00
    Outros vídeos desta música
    Repetir Qualidade Automático
    Outros vídeos desta música
    00:00 / 00:00
    Automático

    Cifra Club Pro

    Aproveite o Cifra Club com benefícios exclusivos e sem anúncios
    Cifra Club Pro
    Aproveite o Cifra Club com benefícios exclusivos e sem anúncios
    OK