Cifra Club

Aprenda

Heat Of The Moment

Asia

Cifra: Versão 5 (violão e guitarra)
tom: F#
Tuning-Eb Ab Db Gb Bb eb

Intro/Verse
e--5--7--3--5----------|
B--5--7--3--5---7--7---|
G--6--7--4--6---7--7---| x3 during verse
D--7--9--5--7---7--7---|
A--5--9--3--5---5--5---|
E--5--7--3--5----------|

Last time during verse play this

e--5--7--3--5------3-|
B--5--7--3--5---7--3-|
G--6--7--4--6---7--4-|
D--7--9--5--7---7--5-|
A--7--9--5--7---5--5-|
E--5--7--3--5------3-|

Chorus
e------2--------------------------2------------2------3------5------5------2-|
B----3-----2-5------3----2-5----3-----2-5----3------3------7------5------3---|
G--2-----2--------4----2------2------2-----4------4------7------6------4-----|
D---------------5------------------------------------------------------------|
A----------------------------------------------------------------------------|
E----------------------------------------------------------------------------|

e-------10-/9---3------------2---------------------------2-------------2----|
B----3--x-------3----------3------2-5------3----2-5----3------2-5----3------|
G--4----7--/6---4--------2------2--------4----2------2------2------4--------|
D---------------5----------------------5------------------------------------|
A---------------5-----------------------------------------------------------|
E---------------3-----------------------------------------------------------|

e-----3------5-------9--------10---------12b--(12)--10--9-/12--10--9--10b--|
B---3------7------10-------12--------12------------------------------------|
G-4------7------9-------11--------11---------------------------------------|
D--------------------------------------------------------------------------|
A--------------------------------------------------------------------------|
E--------------------------------------------------------------------------|

e--10~~~~~~10
B-----------|
G-----------|
D-----------|
A-----------|
E-----------|

Interlude

e-----------|
B-----------|
G-----------|
D-----------| x4
A-----------|
E--9////17--|

e--3-----3-3-3-3-3-3------|
B--3-----3-3-3-3-3-3------|
G--4-----4-4-4-4-4-4------|
D--5-----5-5-5-5-5-5------|
A--5----------------------|
E--3------------------15--|
         P.M........

Verse

e--5--7--3--5----------|
B--5--7--3--5---7--7---|
G--6--7--4--6---7--7---| x3
D--7--9--5--7---7--7---|
A--5--9--3--5---5--5---|
E--5--7--3--5----------|

e--5--7--3--5------3-----x-x-x-x-x-x-x-x-|
B--5--7--3--5---7--3-----x-x-x-x-x-x-x-x-|
G--6--7--4--6---7--4---------------------|
D--7--9--5--7---7--5---------------------|
A--7--9--5--7---5--5---------------------|
E--5--7--3--5------3---------------------|

Chorus

e------2--------------------------2------------2------3------5------5-----10-|
B----3-----2-5------3----2-5----3-----2-5----3------3------7------5----------|
G--2-----2--------4----2------2------2-----4------4------7------6--------7---|
D---------------5------------------------------------------------------9-----|
A----------------------------------------------------------------------------|
E----------------------------------------------------------------------------|

e------------------------19-17-------------10--------------------------------|
B-----12-------10-----17----------------10------------10--------8---------10-|
G--11--------9-----18--------------9h11-------------9---------7---------9----|
D---------12-----------------------------------9h11-------7h9------9h11------|
A----------------------------------------------------------------------------|
E----------------------------------------------------------------------------|

e----------10-------------------------------10-15---------10----------------|
B-------10------------10-----------12-10h12------------10-------------14----|
G--9h11-------------9-----------11----------------9h11-------------14-------|
D--------------9h11-------11h12------------------------------12h14----------|
A---------------------------------------------------------------------------|
E---------------------------------------------------------------------------|

e--------------------10-10-10h12--12-12-12b-(12)-10-9-10b--10b--10~~~10-9~~~-|
G-----------12-10h12---------------------------------------------------------|
B--------11------------------------------------------------------------------|
D--11h12---------------------------------------------------------------------|
A----------------------------------------------------------------------------|
E----------------------------------------------------------------------------|

Guitar Solo

e--------------------------------------------------------------------------|
B----------------------------------------------------3----3~~~3~~~3/5---5--|
G------------------------3/4--2-0---0---0-----3/4--4----4-------------7----|
D--4-2-0-------/4--5-4-2----------2---4---4-2------------------------------|
A--------4-2-0-------------------------------------------------------------|
E--------------------------------------------------------------------------|

e------------------------------------------------------------------------12-|
B------9------------------------------------------------------------12--(12-|
G----9--------------------------------------------------------111214--------|
D--7-----11~9~~~9~~-9h12-12-11-11h14-14-11-11h12-11h12-11h1214--------------|
A---------------------------------------------------------------------------|
E---------------------------------------------------------------------------|

e--10--9-10p9p7-7-7-5-5--7p5---7---5-----------------------------------------|
B----------------------------8-8-7--5h7/8p7h8/10-10---10-----------9---------|
G--------------------------------------------------------9-(9)b-9b--9b-------|(9)
D----------------------------------------------------------------------------|
A----------------------------------------------------------------------------|
E----------------------------------------------------------------------------|

e--7----------------------------------------------------5-------------------|
B---10b-10b-10b-------8-8-8---------------------------------------141517p15-|
G----9b--9b--9b--(9)------------------------------7-6-6---14-14~~16---------|
D---------------------------7p6h7p6h7---7h5---5p4---------------------------|
A-------------------------------------------7-------------------------------|
E---------------------------------------------------------------------------|

e--14--------14-15---17b--17--15-14-----------17-----------------------------|
G-----15p1417-----15----------------17-14-17b----17b--(17)-15-14---17-14-15--|
B----------------------------------------------------------------16----------|
D----------------------------------------------------------------------------|
A----------------------------------------------------------------------------|
E----------------------------------------------------------------------------|

e------------------------------|
G--14--------------------------|
B-----16-11-11-11--9-9-9/7-6-6-|
D------------------------------|   FADE OUT
A------------------------------|
E------------------------------|
Composição de Geoff Downes / John Wetton
1.642 exibições
    • ½ Tom
    • A
    • Bb
    • B
    • C
    • Db
    • D
    • Eb
    • E
    • F
    • F#
    • G
    • Ab
  • Adicionar à lista

    0 comentários

    Ver todos os comentários

    Conseguiu tocar?

    0 Tocaram 0 Ainda não

    Grave um vídeo tocando Heat Of The Moment e nos envie!

    00:00 / 00:00
    Outros vídeos desta música
    Repetir Qualidade Automático
    Outros vídeos desta música
    00:00 / 00:00
    Automático

    Cifra Club Pro

    Aproveite o Cifra Club com benefícios exclusivos e sem anúncios
    Cifra Club Pro
    Aproveite o Cifra Club com benefícios exclusivos e sem anúncios
    OK