Heat Of The Moment

Asia

Composição de: Geoff Downes / John Wetton
tom: F#
Tabbed By - Joe Z


One of those lame songs that sometimes you just need to play really loud to get out of 
head...ill admitt i've done it..haha enjoy

Intro verses
e------------------------|
B------------------------|
G---------------66~------|
D--6/8---4/6----66~------|
A--6/8---4/6----44~------|
E--4/6---2/4-------------|

Instead of ending on G-6~...end on D-4~, after you play the verse 4 times
                     D-6~          A-4~
                     A-4~          E-2~

Chorus :

e-----------------------|
B-----------------------|
G--6--------------------|
D--6---6---8---4-----6~-|
A--4---6---8---4-----6~-|
E------4---6---2-----4~-|
Página 1 / 1

Letras e título
Acordes e artista

resetar configurações
OK