Notificações Amigos pendentes

      Asking Alexandria

      The Final Episode Lets Change The Channel

      39.202 exibições
      Tom: E
      Drop D
      
      Intro
      
      E|-------9*-------------------------|
      B|-------9*-------------------------|
      G|-------9*-------------------------|
      D|--0~------------------------------|
      A|--0~--------\pickslide\-----------|
      E|--0~--------\pickslide\-----------|
      
      
      Verse 1 x2
      
      E|---------------------------------------------------------|
      B|---------------------------------------------------------|
      G|---------------------------------------------------------|
      D|---------------------------------------------------------|
      A|-000000000000--000000000000--8-----7-----10---8---7h8----|
      E|-000000000000--000000000000----0-0---0-0----0---0--------|
      
         ............  ............    . .   . .    .   .
      
      
      E|--------------------------------------------------|
      B|--------------------------------------------------|
      G|--------------------------------------------------|
      D|--------------------------------------------------|
      A|-888888888888--12-----10-----8---10---8-----------|
      E|-888888888888-----8-8----8-8---8----8-------------|
      
         ............     . .    . .   .    .
      
      
      E|-------------------------------------------------|
      B|-------------------------------------------------|
      G|-------------------------------------------------|
      D|-------------------------------------------------|
      A|-777777777777--10-----8-----7---8---7------------|
      E|-777777777777-----7-7---7-7---7---7--------------|
      
         ............     . .   . .   .   .
      
      Verse 2 x4
      
      E|------------------------------------------------------------|
      B|------------------------------------------------------------|
      G|------------------------------------------------------------|
      D|------------------------------------------------------------|
      A|--8-----7-----10---8---7h8---8-----7-----10---8---7h8-------|
      E|----0-0---0-0----0---0---------0-0---0-0----0---0-----------|
      
            . .   . .    .   .         . .   . .    .   .
      
      
      E|----------------------------------------------------------|
      B|----------------------------------------------------------|
      G|----------------------------------------------------------|
      D|----------------------------------------------------------|
      A|--12-----10-----8---10---8-----10-----8-----7---8---7-----|
      E|-----0-0----0-0---0----0----------0-0---0-0---0---0-------|
      
             . .    . .   .    .          . .   . .   .   .
      
      Pre-Chorus
      
      E|------------------------------------------------------------------|
      B|------------------------------------------------------------------|
      G|------------------------------------------------------------------|
      D|-------------------4*b--------------------------------------------|
      A|--000000000000----------000000000000--8-----7-----10---8---7h8----|
      E|--000000000000--0-------000000000000----0-0---0-0----0---0--------|
      
          ............  .       ............    . .   . .    .   .
      
      
      E|--------------------------------------------------|
      B|--------------------------------------------------|
      G|--------------------------------------------------|
      D|--------------------------------------------------|
      A|-888888888888--12-----10-----8---10---8-----------|
      E|-888888888888-----8-8----8-8---8----8-------------|
      
         ............     . .    . .   .    .
      
      
      E|-------------------------------------------------|
      B|-------------------------------------------------|
      G|-------------------------------------------------|
      D|-------------------------------------------------|
      A|-777777777777--10-----8-----7---8---7------------|
      E|-777777777777-----7-7---7-7---7---7--------------|
      
         ............     . .   . .   .   .
      
      Repeat Verse 1 x1
      
      Chorus-strumming x2
      
      E|---------------------------------------------------------|
      B|--3-----11-----8-----------------------------------------|
      G|--2-----10-----7-----------------------------------------|
      D|--0-----8------5-----------------------------------------|
      A|--0-----8------5--------8---7h8---x3---7h8-8-8-8p7-------|
      E|--0-----8------5----000---0------------------------------|
      
                            ...   .
      
      
      Pre-Breakdown
      E|--------------------------------------------|
      B|-------------------------------------9*b\---|
      G|--------------------------------------------|
      D|--------------------------------------------|
      A|------8---7h8------8---7h8------------------|
      E|--000---0------000---0-------000-000--------|
      
          ...   .      ...   .       ... ...
      
      Breakdown
      
      E|-----------------------------------------------|
      B|-----------------------------------------------|
      G|-----------------------------------------------|
      D|-----------------------------------------------|
      A|--000-000-000-000--0000-0-0--0000-0-0-0-0------|
      E|--000-000-000-000--0000-0-0--0000-0-0-0-0------|
      
          ... ... ... ...  .... . .  .... . . . .
      
      
      E|-------------------------------------------|
      B|-------------------------------------------|
      G|-------------------------------------------|
      D|-------------------------------------------|
      A|--000-000-000-000--0000-0-0--000-0-0-000---|
      E|--000-000-000-000--0000-0-0--000-0-0-000---|
      
          ... ... ... ...  .... . .  ... . . ...
      
      
      E|-----------------------------------------------|
      B|-----------------------------------------------|
      G|-----------------------------------------------|
      D|-----------------------------------------------|
      A|--000-000-000-000--0000-0-0--0000-0-0-0-0------|
      E|--000-000-000-000--0000-0-0--0000-0-0-0-0------|
      
          ... ... ... ...  .... . .  .... . . . .
      
      
      E|----------------------------------------|
      B|----------------------------------------|
      G|----------------------------------------|
      D|----------------------------------------|
      A|--000-000-000-000--0000-0-0--0-0000-----|
      E|--000-000-000-000--0000-0-0--0-0000-----|
      
          ... ... ... ...  .... . .  . ....
      
      Breakdown Continues
      
      E|------------------------------------------------|
      B|------------------------------------------------|
      G|------------------------------------------------|
      D|------------------------------------------------|
      A|-00-00-00-00----000-----00-00-00-00---000000----|
      E|-00-00-00-00----000-----00-00-00-00---000000----|
      
         .. .. .. ..    ...     .. .. .. ..   ......
      
      
      E|----------------------------------------------------|
      B|----------------------------------------------------|
      G|----------------------------------------------------|
      D|----------------------------------------------------|
      A|--00~-00~-00~-00~---000~---00~-00~-00~-00~---000----|
      E|--00~-00~-00~-00~---000~---00~-00~-00~-00~---000----|
      
          ..  ..  ..  ..    ...    ..  ..  ..  ..    ...
      
      Repeat Chorus
      
      Bridge-strum
      
      E|-----------------------------------|
      B|-----------------------------------|
      G|-----------------------------------|
      D|--00000-00000--------------5*------|
      A|--00000-00000-(bass)-0000----------|
      E|--00000-00000--------0000----------|
      
                             ....
      
      
      E|------------------------------------|
      B|---------------------------8--------|
      G|---------------------5-7-8---8-7----|
      D|------------------------------------| x4
      A|--00000-00000-00000-----------------|
      E|--00000-00000-00000-----------------|
      
          ..... ..... .....
      
      E|-------|
      B|-------|
      G|-------|
      D|--0~---|
      A|--0~---|
      E|--0~---|
      
      3:33
      Outro x2 (second time through don't play last 3 \/ \/ \/ notes)
      
      E|--------------------------------------------------------------|
      B|--------------------------------------------------------------|
      G|--------------------------------------------------------------|
      D|--------------------------------------------------------------|
      A|--000~-000~--0-0-0---0-0-0-------000~-000~-0~--0~-0~-0~-------|
      E|--000~-000~--0-0-0---0-0-0--x2---000~-000~-0~--0~-0~-0~--x2---|
      
          ...  ...           . . .       ...  ...  .   .  .  .
      
      
      E|----------|
      B|----------|
      G|----------|
      D|--0-0-0!--|
      A|--0-0-0!--|
      E|--0-0-0!--|
      

      Comentários 14

      140 .
      • Lucas Lucas: Em 21/11/2014 23:14

        Video aula !! essa merece kk

      • Higor Higor: Em 25/08/2014 22:35

        video aula po

      • Ed willy Ed willy: Em 03/08/2014 15:40

        q bosta hein .-. o drop da música é D e é tudo uma casa atrás, menos o 0 , se for 8 é pra bater na 9, se for 9, na 10, e 7, na 8

      • Paulo Paulo: Em 27/02/2014 18:10

        mais facil tirar de ouvido do que ver essa tab cagada

      • liipecosta liipecosta: Em 05/05/2013 07:19

        A musica original é em drop C !

      • wattsonanndrade wattsonanndrade: Em 01/12/2012 11:59

        Porésa?

      • julianopiazera julianopiazera: Em 14/11/2012 19:10

        essa versao ta cagada?

      • darka darka: Em 18/10/2012 15:09

        super fodaaaaaaaaaa

      • bernard16 bernard16: Em 21/06/2012 19:46

        é Drop em D : Afinação : D A D G B E

      • rgerhardt rgerhardt: Em 30/05/2012 15:38

        Pessoal, a afinação é C D C G A D , se chama DROP C e a cifra ta certa ok ? Abraços a todos.

      140 cancelar

      conseguiu tocar?

      • •••

      covers

      Grave um vídeo tocando The Final Episode Lets Change The Channel e mande pra gente!

      Ex.: http://www.youtube.com/watch?v=0IvSvIwGdwk
      ver covers de outras músicas »
      0:00 / 0:00

      Capítulos

        1 versão de violão dificuldade exibições contribuição e correção
        1 versão de guitarra dificuldade exibições contribuição e correção
        1 versão de cavaco dificuldade exibições contribuição e correção
        1 versão de teclado dificuldade exibições contribuição e correção
        1 versão de baixo exibições contribuição e correção
        1 versão de Guitar Proformatodownloadscontribuição
        play/pausefechar subir/descer velocidade
        6ª corda E5ª corda A4ª corda D3ª corda G2ª corda B1ª corda E
          acordes
          publicidade
          fechar
          ok