Cifra Club

The Final Episode Lets Change The Channel

Asking Alexandria

Cifra: Principal
exibições 42.792
Tom: E
Drop D

Intro
E|-------9*-------------------------|
B|-------9*-------------------------|
G|-------9*-------------------------|
D|--0~------------------------------|
A|--0~--------\pickslide\-----------|
E|--0~--------\pickslide\-----------|

Verse 1 x2
E|---------------------------------------------------------|
B|---------------------------------------------------------|
G|---------------------------------------------------------|
D|---------------------------------------------------------|
A|-000000000000--000000000000--8-----7-----10---8---7h8----|
E|-000000000000--000000000000----0-0---0-0----0---0--------|
   ............  ............    . .   . .    .   .

E|--------------------------------------------------|
B|--------------------------------------------------|
G|--------------------------------------------------|
D|--------------------------------------------------|
A|-888888888888--12-----10-----8---10---8-----------|
E|-888888888888-----8-8----8-8---8----8-------------|
   ............     . .    . .   .    .

E|-------------------------------------------------|
B|-------------------------------------------------|
G|-------------------------------------------------|
D|-------------------------------------------------|
A|-777777777777--10-----8-----7---8---7------------|
E|-777777777777-----7-7---7-7---7---7--------------|
   ............     . .   . .   .   .

Verse 2 x4
E|------------------------------------------------------------|
B|------------------------------------------------------------|
G|------------------------------------------------------------|
D|------------------------------------------------------------|
A|--8-----7-----10---8---7h8---8-----7-----10---8---7h8-------|
E|----0-0---0-0----0---0---------0-0---0-0----0---0-----------|
      . .   . .    .   .         . .   . .    .   .

E|----------------------------------------------------------|
B|----------------------------------------------------------|
G|----------------------------------------------------------|
D|----------------------------------------------------------|
A|--12-----10-----8---10---8-----10-----8-----7---8---7-----|
E|-----0-0----0-0---0----0----------0-0---0-0---0---0-------|
       . .    . .   .    .          . .   . .   .   .

Pre-Chorus
E|------------------------------------------------------------------|
B|------------------------------------------------------------------|
G|------------------------------------------------------------------|
D|-------------------4*b--------------------------------------------|
A|--000000000000----------000000000000--8-----7-----10---8---7h8----|
E|--000000000000--0-------000000000000----0-0---0-0----0---0--------|
    ............  .       ............    . .   . .    .   .

E|--------------------------------------------------|
B|--------------------------------------------------|
G|--------------------------------------------------|
D|--------------------------------------------------|
A|-888888888888--12-----10-----8---10---8-----------|
E|-888888888888-----8-8----8-8---8----8-------------|
   ............     . .    . .   .    .

E|-------------------------------------------------|
B|-------------------------------------------------|
G|-------------------------------------------------|
D|-------------------------------------------------|
A|-777777777777--10-----8-----7---8---7------------|
E|-777777777777-----7-7---7-7---7---7--------------|
   ............     . .   . .   .   .

Repeat Verse 1 x1

Chorus-strumming x2
E|---------------------------------------------------------|
B|--3-----11-----8-----------------------------------------|
G|--2-----10-----7-----------------------------------------|
D|--0-----8------5-----------------------------------------|
A|--0-----8------5--------8---7h8---x3---7h8-8-8-8p7-------|
E|--0-----8------5----000---0------------------------------|
                      ...   .

Pre-Breakdown
E|--------------------------------------------|
B|-------------------------------------9*b\---|
G|--------------------------------------------|
D|--------------------------------------------|
A|------8---7h8------8---7h8------------------|
E|--000---0------000---0-------000-000--------|
    ...   .      ...   .       ... ...

Breakdown
E|-----------------------------------------------|
B|-----------------------------------------------|
G|-----------------------------------------------|
D|-----------------------------------------------|
A|--000-000-000-000--0000-0-0--0000-0-0-0-0------|
E|--000-000-000-000--0000-0-0--0000-0-0-0-0------|
    ... ... ... ...  .... . .  .... . . . .

E|-------------------------------------------|
B|-------------------------------------------|
G|-------------------------------------------|
D|-------------------------------------------|
A|--000-000-000-000--0000-0-0--000-0-0-000---|
E|--000-000-000-000--0000-0-0--000-0-0-000---|
    ... ... ... ...  .... . .  ... . . ...

E|-----------------------------------------------|
B|-----------------------------------------------|
G|-----------------------------------------------|
D|-----------------------------------------------|
A|--000-000-000-000--0000-0-0--0000-0-0-0-0------|
E|--000-000-000-000--0000-0-0--0000-0-0-0-0------|
    ... ... ... ...  .... . .  .... . . . .

E|----------------------------------------|
B|----------------------------------------|
G|----------------------------------------|
D|----------------------------------------|
A|--000-000-000-000--0000-0-0--0-0000-----|
E|--000-000-000-000--0000-0-0--0-0000-----|
    ... ... ... ...  .... . .  . ....

Breakdown Continues
E|------------------------------------------------|
B|------------------------------------------------|
G|------------------------------------------------|
D|------------------------------------------------|
A|-00-00-00-00----000-----00-00-00-00---000000----|
E|-00-00-00-00----000-----00-00-00-00---000000----|
   .. .. .. ..    ...     .. .. .. ..   ......

E|----------------------------------------------------|
B|----------------------------------------------------|
G|----------------------------------------------------|
D|----------------------------------------------------|
A|--00~-00~-00~-00~---000~---00~-00~-00~-00~---000----|
E|--00~-00~-00~-00~---000~---00~-00~-00~-00~---000----|
    ..  ..  ..  ..    ...    ..  ..  ..  ..    ...

Repeat Chorus

Bridge-strum
E|-----------------------------------|
B|-----------------------------------|
G|-----------------------------------|
D|--00000-00000--------------5*------|
A|--00000-00000-(bass)-0000----------|
E|--00000-00000--------0000----------|
                       ....

E|------------------------------------|
B|---------------------------8--------|
G|---------------------5-7-8---8-7----|
D|------------------------------------| x4
A|--00000-00000-00000-----------------|
E|--00000-00000-00000-----------------|
    ..... ..... .....

E|-------|
B|-------|
G|-------|
D|--0~---|
A|--0~---|
E|--0~---|

3:33
Outro x2 (second time through don't play last 3 \/ \/ \/ notes)
E|--------------------------------------------------------------|
B|--------------------------------------------------------------|
G|--------------------------------------------------------------|
D|--------------------------------------------------------------|
A|--000~-000~--0-0-0---0-0-0-------000~-000~-0~--0~-0~-0~-------|
E|--000~-000~--0-0-0---0-0-0--x2---000~-000~-0~--0~-0~-0~--x2---|
    ...  ...           . . .       ...  ...  .   .  .  .

E|----------|
B|----------|
G|----------|
D|--0-0-0!--|
A|--0-0-0!--|
E|--0-0-0!--|
Acordes para:
    Colaboração e revisão:
    • Douglas santos
    • italo cavalcante

    0 comentários

      mostrar mais comentários

      Conseguiu tocar?

      16tocaram0ainda não

      Grave um vídeo tocando The Final Episode Lets Change The Channel e mande pra gente!

      00:00 / 00:00
      outros vídeos desta música
      repetirqualidadeautomática
      Outro vídeos desta música
        00:00 / 00:00
        automática
        OK