Cifra Club

Baião da Anunciação

Assassinato Em Veneza

Cifra: Principal (violão e guitarra)
tom: G
INTRO : (  G7                C  )


Hoje eu vou ficar até o último pandeiro tocar !
                C                    G       D
Não vou voltar pra casa são
G                 D/F#                    Em
E anúncio a todos que não precisam me esperar
                      C    G         D
Pois não vou dar satisfação pra ninguém 


ESTROFE
Em                      D              Am 
Quando o sol que queima a praça meus olhos cegar
          C   G            D
Eu quero estar de prontidão 
Em                D                                     Am
Pra conferir a solidão que me acompanha ficou sem par
                C   G            D
E não faz mais uso capeão de mim !


VOLTA PRA INTRO


Hoje eu vou passar a noite em claro dançando baião !
                C                    G      D
Não vou voltar pra casa são
G               D/F#                           Em
E renuncio a tudo e a quem não me acompanhar
                  C  G           D
Não sou de dar satisfação pra ninguém


ESTROFE
Em                      D              Am
Quando o sol que queima a praça meus olhos cegar
           C  G            D
Eu quero estar de prontidão
Em                    D                    Am
Pra conferir a solidão que me acompanha ficou sem par
                C    G           D
E não faz mais uso capeão de mim !

REFRÃO

                 ( G7 )
Eis aqui esse baião ! Baião da anunciação
Feito de queixa e lameto ! Duas estrofes e um refrão
Quem quiser cantar comigo não precisa ter o dom

                     C          Bb
Rasga o peito e a garganta e canta com o coração !

base solo de teclado:  G         C

SOLO DE GUITARRA

-----------------10-----12h13---12---10----12h13--------------------10------13----------|
-----------12---------------------------------------------------------------------------|
--/-12----------------------------------------------------/-12--------------------------|
----------------------------------------------------------------------------------------|
----------------------------------------------------------------------------------------|
----------------------------------------------------------------------------------------|

--12h13p12p10----12----------------------10------13-----12-----10------17---------------|
------------------------10--------------------------------------------------------------|
-------------------------------/-12-----------------------------------------------------|
----------------------------------------------------------------------------------------|
----------------------------------------------------------------------------------------|
----------------------------------------------------------------------------------------|
                                                                                               
---15---13--15--13---12--13--12------10---12---12---------------------------------------|
---------------------------------------------------------12-----------------------------|
----------------------------------------------------------------------------------------|
----------------------------------------------------------------------------------------|
----------------------------------------------------------------------------------------|
----------------------------------------------------------------------------------------|
VOLTA PRA ESTROFE(A guitarra volta com distorção)

SOLO FINAL(repetir 4 x)

---------------10----13----12----15----13----12---10----13---12---10---12---10----------|
---------12-----------------------------------------------------------------------------|
---12-----------------------------------------------------------------------------------|
----------------------------------------------------------------------------------------|
----------------------------------------------------------------------------------------|
----------------------------------------------------------------------------------------|

---8---10-----7-------------------------------------------------------------------------|
----------------------------------------------------------------------------------------|
----------------------------------------------------------------------------------------|
----------------------------------------------------------------------------------------|
----------------------------------------------------------------------------------------|
----------------------------------------------------------------------------------------|
00:00 / 00:00
Outros vídeos desta música
Repetir
Outros vídeos desta música
Composição de pompeu
Colaboração e revisão:
  • benedito neto
1.553 exibições
    • ½ Tom
    • A
    • Bb
    • B
    • C
    • Db
    • D
    • Eb
    • E
    • F
    • F#
    • G
    • Ab
  • Adicionar à lista

    0 comentários

    Ver todos os comentários

    Conseguiu tocar?

    0 Tocaram 0 Ainda não

    Grave um vídeo tocando Baião da Anunciação e nos envie!

    Entre para oCifra Club PRO

    Tenha acesso a benefícios exclusivos no App e no Site

    • Chega de anúncios

    • Prioridade de compra em lançamentos

    • Mais recursos no app do Afinador

    • Atendimento Prioritário

    • Descontos nos produtos Cifra Club

    • Ajude a produzir mais conteúdo

    00:00 / 00:00

    Cifra Club Pro

    Aproveite o Cifra Club com benefícios exclusivos e sem anúncios
    Cifra Club Pro
    Aproveite o Cifra Club com benefícios exclusivos e sem anúncios
    OK