Cifra Club

Paranóia City

Assassinato Em Veneza

Cifra: Principal (violão e guitarra)
tom: G
INTRODUÇÃO:  ( G    C9 ) fica alternando.......

(Estrofe 1)
( G     C9  )
Não trago nada além de versos e canções e algum truque nas mangas
Tenho a garganta seca e os olhos roucos, um dia cinza sou cego aos poucos
Sob o céu dessa cidade paranóia city, paira saudade, paira desilusão!!!!
Um outdoor desponta tapa e encobre o sol
De quem conserva a vida, num vidro de formol....uuuuuu
"SERÁ QUE DEUS SABE DANÇAR”.....

(Estrofe 2) agora muda o ritmo um pouco,cai pra um reaggae....

 (   G     C )
Mas a noite todos os bares são pardos.. eu vejo a lua beijar o asfalto
O muro é fragil pra quem tem coragem.. a escada é curta pra quem sonha alto
"O NOSSO DEUS SABE DANÇAR”

REFRÃO

 Am     G/B   C                     D
      Para....nóia  um trago , outra estação
  Em        D/F#         Am                 Bm
      Cai a garoa , um tiro e outro alguém vai ao chão
    C         G/B         Am        G
     Quem vem  para resgatar
                    C        G/B              Am  G/B  C  D
    Os nossos tolos , mas eternos so...............nhos!!!

VOLTA PRA PRIMEIRA STROFE E DEPOIS O REFRÃO...

SOLO DE GUITARRA:

----------------------------------------------------------------------------------------------|
-------------8---7---8-----------------------7---8---10--------------8---7---8----------------|
---7---9-----------------7----------7---9--------------------7---9-----------------7----------|
---------------------------------9------------------------------------------------------------|
----------------------------------------------------------------------------------------------|
----------------------------------------------------------------------------------------------|

--------------------------------------------------------------------------7---10---12---10----|
--------------------------8------8----------------------8-----8-------------------------------|
------7---9----0-----7--------7-----7---5--4---------7-----7-----7----------------------------|
--9--------------------------------------------5----------------------------------------------|
----------------------------------------------------------------------------------------------|
----------------------------------------------------------------------------------------------|

-----------------------------------------------12---14---15---14---12--------12---------------|
--13---12---13---12h13p12-------------12-------------------------------15b--------15--12------|
-------------------------------14-------------------------------------------------------------|
----------------------------------------------------------------------------------------------|
----------------------------------------------------------------------------------------------|
----------------------------------------------------------------------------------------------|

---12-----------------------------------------------------------------------------------------|
----------15----12----------------------------------------------------------------------------|
------------------------14b----14----12----14-------------------------------------------------|
----------------------------------------------------------------------------------------------|
----------------------------------------------------------------------------------------------|
----------------------------------------------------------------------------------------------|

VOLTA PRO REFRÃO
00:00 / 00:00
Outros vídeos desta música
Repetir
Outros vídeos desta música
Composição de pompeu
Colaboração e revisão:
  • benedito neto
1.324 exibições
    • ½ Tom
    • A
    • Bb
    • B
    • C
    • Db
    • D
    • Eb
    • E
    • F
    • F#
    • G
    • Ab
  • Adicionar à lista

    0 comentários

    Ver todos os comentários

    Conseguiu tocar?

    0 Tocaram 0 Ainda não

    Grave um vídeo tocando Paranóia City e nos envie!

    Entre para oCifra Club PRO

    Tenha acesso a benefícios exclusivos no App e no Site

    • Chega de anúncios

    • Prioridade de compra em lançamentos

    • Mais recursos no app do Afinador

    • Atendimento Prioritário

    • Descontos nos produtos Cifra Club

    • Ajude a produzir mais conteúdo

    00:00 / 00:00

    Cifra Club Pro

    Aproveite o Cifra Club com benefícios exclusivos e sem anúncios
    Cifra Club Pro
    Aproveite o Cifra Club com benefícios exclusivos e sem anúncios
    OK