Cifra Club

Uma Balada Urbana

Assassinato Em Veneza

Cifra: Principal (violão e guitarra)
tom: E
LICK INICIAL     (repetir varias vezes)
--------------------------------------------------------------------------------------|
--------------------------------------------------------------------------------------|
---9-----8h9p8------9------8h9p8-------9-----8h9p8------------------------------------|
--------------------------------------------------------------------------------------|
--------------------------------------------------------------------------------------|
--------------------------------------------------------------------------------------|

E                                                     A
Quase toda noite eu vou ao mesmo bar
           C#m                                                            B
Eu invento outra regra! Descarto outra carta! No velho jeito junkie de se jogar
E                                                   A
Quase toda noite eu tento te encontrar
                 C#m                                                         B
Em algum bar esconderijo! Fugindo do perigo! No sótom de um abrigo nuclear
E                                                  A
Quase toda noite  eu cometo os mesmos erros
                     C#m                                                                        B
Eu entro em outra contra-mão! Dobro na esquina errada! Ou avanço no sinal vermelho
E                                             A
Quase toda noite  eu renovo os mesmos vícios
                 C#m                                
Usando os mesmos artifícios! Correndo os mesmos riscos!
B                                       A
Que quase sempre não sou digno de se correr

REFRÃO
E                                    A                            C#m           
Como se o mundo fosse simples! E não desse tantas voltas! E tudo aquilo que acredito
                B                A                   G#m
Me apontasse uma resposta! Seria fácil de entender esse tal de rock’n’roll
           F#m                  B                  
Se alguém pudesse me dizer o que é que vem depois do fim!

LICK INICIAL

SOLO

--------------------------------------------------------------------------------------------------|
------------------------------------------------------------------------------------12b-12b-------|
--9-------------------4---4------------------------------------------8----------9-------------9---|
-----9---6-------4----4---4--------------------4----6----7----9----------4------------------------|
-------------7-------------------4---6---7--------------------------------------------------------|
--------------------------------------------------------------------------------------------------|

------------------------------------------------------------------11h12p11----------11---12--14--|
-----------------------------------------10--9----------------12-------------14------------------|
--------11b--------------------------------------6--------11-------------------------------------|
---9-----------9-------------6----9--------------------------------------------------------------|
--------------------4----7-----------------------------------------------------------------------|
-------------------------------------------------------------------------------------------------|

--14b---14b---14b---------12----------------------------------------------------------------------
--------------------------------------------------------------------------------------------------
----------------------------------------------------------------------------------------------------
----------------------------------------------------------------------------------------------------
----------------------------------------------------------------------------------------------------
----------------------------------------------------------------------------------------------------
E                                A
Quase toda noite é uma sim outra não
     C#m                                           B                              
Eu calço minhas botas! E procuro uma resposta num copo de conhaque

Ou num livro de drummond
E                                         A
Quase toda noite eu dispenso os meus princípios
                  C#m                              B                        
Me atiro de outro precipício! Me perco no início! Procuro outro meio 
                  A
E invento outro fim...

LICK INICIAL
REFRÃO

---------------------------------------------------------------------------------------------|
---------------------------------------------------------------------------------------------|
---------------------------------------------------------------------------------------------|
------------9------------------------9--------------------------9-----------------------9----|
--7--7--7------7--7--7-----7--7--7-------7--7--7------7--7--7-------7--7--7---7--7--7--------|
---------------------------------------------------------------------------------------------|

SOLO

----------------------------------------------------------------------------------------------|
-----------12----10--9--10--------------------------------------------------------------------|
-------9----------------------9---------9---11b---11b---11--9--11-----11p9p8h9p8--------------|
--11-------------------------------9----------------------------------------------------------|
----------------------------------------------------------------------------------------------|
----------------------------------------------------------------------------------------------|

----------------------------------------------------------------------------------------------|
--------------------------------12---10---9--10-----------------------------------------------|
----------------------------9---------------------9---------9--11b-11b--11--9--11-------------|
---9---11----9-------11-------------------------------11--------------------------------------|
----------------------------------------------------------------------------------------------|
----------------------------------------------------------------------------------------------|

-----9-----11-----12------11------9-----------------------------------------------------------|
--9-----9------9-------9-------9-------9----12---9--------------------------------------------|
----------------------------------------------------------11b---11b------9--------------------|
----------------------------------------------------------------------------------------------|
----------------------------------------------------------------------------------------------|
----------------------------------------------------------------------------------------------|
VOLTA NO REFRÃO
LICK INICIAL
00:00 / 00:00
Outros vídeos desta música
Repetir
Outros vídeos desta música
Composição de pompeu
Colaboração e revisão:
  • benedito neto
1.778 exibições
    • ½ Tom
    • A
    • Bb
    • B
    • C
    • Db
    • D
    • Eb
    • E
    • F
    • F#
    • G
    • Ab
  • Adicionar à lista

    0 comentários

    Ver todos os comentários

    Conseguiu tocar?

    0 Tocaram 0 Ainda não

    Grave um vídeo tocando Uma Balada Urbana e nos envie!

    Entre para oCifra Club PRO

    Tenha acesso a benefícios exclusivos no App e no Site

    • Chega de anúncios

    • Prioridade de compra em lançamentos

    • Mais recursos no app do Afinador

    • Atendimento Prioritário

    • Descontos nos produtos Cifra Club

    • Ajude a produzir mais conteúdo

    00:00 / 00:00

    Cifra Club Pro

    Aproveite o Cifra Club com benefícios exclusivos e sem anúncios
    Cifra Club Pro
    Aproveite o Cifra Club com benefícios exclusivos e sem anúncios
    OK