Cifra Club

Fuga Y Misterio

Astor Piazzolla

Cifra: Principal (violão e guitarra)
tom: Cm
E|------------------------------------------------------/|
B|------------------------------------------------------/|
G|------------------------------------------9-7---------/|
D|--------------------------7-8-9-10-8-9--9------10-9-8-/|
A|----------7-6-7-9-10-9-10-----------------------------/|
E|-7-9-11-7---------------------------------------------/|

E|-------------------------------------------------------/|
B|-------------------------------------------------------/|
G|----------------------------7--------------------------/|
D|--------------------9-9-9--9-10-9-7-6-9-----7-6--7-9-10/|
A|-10-9-7-9--8-9-10-9---------------------8-7------------/|
E|-------------------------------------------------------/|

E|----------------------------------------------------------/|
B|----------------------------------------------------------/|
G|----------------------------------------------------------/|
D|-7-9-7-9-10-9-7------7--------------7-9-------------------/|
A|----------------10-9--------10-9-10------8-9-9-9-9-9-9-9-7/|
E|-----------------------10-8-------------------------------/|

E|---------------------------------------------------------------/|
B|---------------------------------------------------------------/|
G|---------------------------------------------------------------/|
D|--------9-7--------8-7--------8-7--------7----------7----------/|
A|-10-9-7-----10-9-7-----10-9-7-----10-9-7---10-9-7-6--10-9-7-6-7/|
E|---------------------------------------------------------------/|



despues hace lo mismo en A  menor lugar 12, despues D  menor
lugar 5 y por ultimo a G   menor en el lugar 10.
busca la tónica en la 5ta cuerda. chau y espero que la entiendan.
00:00 / 00:00
Outros vídeos desta música
Repetir
Outros vídeos desta música
Composição de Astor Piazzolla
38 exibições
    • ½ Tom
    • Am
    • Bbm
    • Bm
    • Cm
    • C#m
    • Dm
    • Ebm
    • Em
    • Fm
    • F#m
    • Gm
    • G#m
  • Adicionar à lista

    0 comentários

    Ver todos os comentários

    Conseguiu tocar?

    0 Tocaram 0 Ainda não

    Grave um vídeo tocando Fuga Y Misterio e nos envie!

    Toque também

    1. Imagem do artista Carlos Gardel Por Una Cabeza Carlos Gardel
    2. Imagem do artista Adriana Varela Pedacito de Cielo Adriana Varela
    3. Imagem do artista Roberto Goyeneche La última curda Roberto Goyeneche
    4. Imagem do artista Daniel Melingo Sin Luna Daniel Melingo

    Entre para oCifra Club PRO

    Tenha acesso a benefícios exclusivos no App e no Site

    • Chega de anúncios

    • Prioridade de compra em lançamentos

    • Mais recursos no app do Afinador

    • Atendimento Prioritário

    • Descontos nos produtos Cifra Club

    • Ajude a produzir mais conteúdo

    00:00 / 00:00

    Cifra Club Pro

    Aproveite o Cifra Club com benefícios exclusivos e sem anúncios
    Cifra Club Pro
    Aproveite o Cifra Club com benefícios exclusivos e sem anúncios
    OK