Cifra Club

Libertango

Astor Piazzolla

Cifra: Principal (violão e guitarra)
tom: D
G||--5---5---------|--5---5-----5---|--4---4---------|--4---4-----4---|
D||----------------|----------------|----------------|----------------|
A||-0----0-----0---|-0----0-----0---|-0----0-----0---|-0----0-----0---|
E||----------------|----------------|----------------|----------------|

e||------------7---|--------7-------|------------5---|--------5-------|
b||----------------|----------------|--------------5-|----------5-----|
G||--7h9-7h9-7---7-|--7h9-7---7-7h9-|--5h7-5h7-5-----|--5h7-5-----5h7-|
D||--9---9---------|--9---9-----9---|--7---7---------|--7---7-----7---|
A||-0----0-----0---|-0----0-----0---|-0----0-----0---|-0----0-----0---|
E||----------------|----------------|----------------|----------------|

e||------------5---|--------5-------|------------5---|--------5-------|
b||--1h3-1h3-1-----|----3-----5---3-|--0h1-0h1-0---4-|--0h1-0---4-0h1-|
G||--2---2-------5-|--5---5-----5---|--2---2---------|--2---2-----2---|
D||----------------|--5---5-----5---|----------------|----------------|
A||----------------|----------------|----------------|----------------|
E||-3----3-----3---|-3----3-----3---|-2----1-----1---|-2----1-----1---|

e||------------4---|--------4-------|------------4---|--------4-------|
b||--0h1-0h1-0---3-|--0h1-0---3-0h1-|--0h1-0h1-0---3-|--0h1-0---3-0h1-|
G||--2---2---2-----|--2---2-----2-2-|--1---0---0-----|--1---0-----0---|
D||----------------|----------------|----------------|----------------|
A||----------------|----------------|----------------|----------------|
E||-1----1-----1---|-1----1-----1---|-0----0-----0---|-0----0-----0---|

e||-0--------------|----------------|----------------|----------------|
b||---1-------1---1|-----1---3-1-0--|-0--------------|----------------|
G||-----2---2----2-|---2-----------2|-----2-----2---2|----2-----2-----|
D||-------3-----2--|----------------|---1-----0----0-|---1----0-----0-|
A||-0--------------|-0-----0-----0--|-------3-----2--|-0--------------|
E||----------------|----------------|-2--------------|------3-----2---|

e||----------------|----------------|----------------|----------------|
b||-3-------1---1--|-----0---1-0----|----------------|----------------|
G||--2----2---2----|---1--------2-0-|-2--------------|---------0------|
D||---0-0---2------|-2-----0--------|---2-----2-----3|-4---------3-3-2|
A||----------------|----------------|-0---0-----0----|---0------------|
E||-1--------------|------------0---|-------0-----0--|-0---0-0-----0--|

e||----------------|----------------|----------------|----------------|
b||-1-0-1-------1--|-----1---1-0-1--|-0--------------|----------------|
G||-------2---2---2|---2-----------2|----2-----2-----|----2-----2-----|
D||---------3----2-|----------------|---1----0-----0-|--1-----0-----0-|
A||-0--------------|-0-----0-----0--|------3-----2---|-0--------------|
E||----------------|----------------|-2--------------|------3-----2---|

e||----------------|----------------|----------------|----------0-1-2-|
b||-0--------------|---------0-1-0--|-0--------------|-----0---4------|
G||-----2-----2----|-----2---------2|-----1-----2---3|----------------|
D||---0-----0-----0|---0------------|---0-----0------|---0------------|
A||-------2--------|-2--------------|----------------|----------------|
E||-1-----------1--|-------1-----1--|-0-----2-----3--|-4-----0----0---|

e||-3--------------|-------3-1-0---0|-1--------------|----------------|
b||-----3----3-----|-----2-------3--|-----3-----3----|-----3----------|
G||---0----0----4-2|-1-2------------|---2-----2-----2|---2------------|
D||----------------|----------------|-0--------------|----------------|
A||-1----2---------|-0-----0-----0--|-------0-----1--|-2-----3-3-2-1-0|
E||------------0---|----------------|----------------|----------------|

e||-1-0-1----------|-----1-3-0------|-0--------------|---------------0|
b||-----1-----3---3|----0------3-1-3|-----1----1-----|-------3-----0--|
G||-----1---2----2-|---0------------|---0-----0----0-|-----2-----1----|
D||-----0-0-----0--|----------------|----------------|---3------------|
A||----------------|----------------|-3-----2----0---|-2--------------|
E||----------------|-3-------1------|----------------|---------0------|

e||----------------|-------0--------|----------------|----------------|
b||-----1----1-----|-3-------3-1-0--|-0--------------|----------------|
G||---2----2-----2-|-----2---------2|-----2-----2----|-----2-----2----|
D||-2----2-----2---|---2------------|---1-----0-----0|---1-----0-----0|
A||-0----0-----0---|-0-----0-----0--|-------3-----2--|-------3-----2--|
E||----------------|----------------|-2--------------|-2--------------|

e||----------------|----------------|----------------|----------------|
b||-----------0----|-1-----3-1-0----|----------------|----------------|
G||-----2----------|-------------2-1|-2--------------|-----2-----2----|
D||-0-3---0-3---0-3|---0-3----------|---2-------2---2|---2-----2-----2|
A||-0-----0-----0--|---0------------|-0---0---2------|-0-----0--------|
E||----------------|---------0---0--|-------0-----2--|-------------0--|

e||----------------|----------------|----------------|----------------|
b||-------------1--|---------1------|-------------0--|---------0------|
G||---------------2|-----------2----|----------------|----------------|
D||---2h3-2h3-2----|---2h3-2-----2h3|---1h2-1h2-1---4|---1h2-1---4-1h2|
A||-0-----0-----0--|-0-----0-----0--|-0-----0-----0--|-0-----0-----0--|
E||----------------|----------------|----------------|----------------|

e||----------------|----------------|----------------|----------------|
b||-------------0--|---------0------|----------------|----------------|
G||----------------|----------------|-------------2--|---------2------|
D||---0h2-0h2-0---3|---0h2-0---3-0h2|-----0---0-----2|-----0-----2---0|
A||-0-----0-----0--|-0-----0-----0--|---3---3---3-0--|---3---3-----3--|
E||----------------|----------------|-5-----5--------|-5-----5-----5--|

e||----------------|----------------|----------------|----------------|
b||----------------|----------------|----------------|----------------|
G||-------------2--|---------2------|-------------2--|---------2------|
D||-----0---0-----2|-----0-----2---0|---------------1|-----------1----|
A||---3---3---3----|---3---3-----3--|---2h3-2h3-2----|---2h3-2-----2h3|
E||-3-----3-----3--|-3-----3-----3--|-2-----1-----1--|-2-----1-----1--|

e||----------------|----------------|----------------|----------------|
b||----------------|----------------|----------------|----------------|
G||-------------2--|---------2------|-------------1--|---------1------|
D||---------------1|-----------2----|---------------0|-----------0----|
A||---2h3-2h3-2----|---2h3-2-----2h3|---2h3-2h3-2----|---2h3-2-----2h3|
E||-1-----1-----1--|-1-----1-----1--|-0-----0-----0--|-0-----0-----0--|

e||-12-0----0----0-|---0----10-8-7-5|-7--------------|-----------7-8-9|
b||-----0----0-----|----0-----------|---4-----3-----3|---4-----3------|
G||----------------|----------------|-----4-----4----|-----4----------|
D||----------------|----------------|----------------|----------------|
A||-0-----0----0---|-0----0------0--|-0-----0-----0--|-0-----0-----0--|
E||----------------|----------------|----------------|----------------|

e||-10-------------|---------8-7-5-4|-5--------------|-------------5-7|
b||----------------|----------------|----------------|-----------5----|
G||---10---10---10-|---10-----------|---5-4---5-4---5|---5-4---5------|
D||-----9----9-----|-----9----------|----------------|----------------|
A||------0----0----|-0--------------|-0-----0-----0--|-0-----0--------|
E||-0--------------|-------0-----0--|----------------|---------------0|

e||-8--------------|---------8-7-8-5|-7--------------|----------------|
b||----------------|----------------|---4-----3-----3|---4-----3-----3|
G||---5-4---5-4---5|---5-4----------|-----4-----4----|-----4-----4----|
D||----------------|----------------|----------------|----------------|
A||-0-----0--------|-0-----------0--|-0-----0-----0--|-0-----0-----0--|
E||-------------0--|-------0--------|----------------|----------------|

e||-7--------------|---------7-8-7-5|-7--------------|-----11-12-13-14|
b||---3-----3-----3|---3------------|-----5-----5----|----------------|
G||-----4-----4----|-----4----------|---7-----7---6-7|-7-9------------|
D||----------------|----------------|-------6--------|----------------|
A||-0-----0-----0--|-0-----0-----0--|----------------|----------------|
E||----------------|----------------|-0--------------|0---0------0----|

e||-15-------------|-12-15-13-12-10-12|-13-------------|----------------|
b||-----11----12---|-12---------------|---10---10---11-|12---13-12-11-10|
G||---0-----0-----0|-12---------------|-----10---10----|--10---10-------|
D||-0-----0-----0--|-10---------------|-0--------------|0---0-----------|
A||----------------|0-----------------|-------0----0---|-----0-----0----|
E||----------------|------------------|----------------|----------------|

e||13--------------|----10-13-12-10--10|12-------------|----------------|
b||----13---13-----|---8-----------13--|---------------|----------------|
G||--13---14----14-|-10----------------|---------------|--------10--9-10|
D||0-----0----0----|-------------------|----9----9-----|----12----12----|
A||----------------|10-----------------|--10---10---10-|--11--10--------|
E||----------------|-------------------|8-----8----8---|-0--------------|

e||---5-7---5-8---5|10--5-12-10-8-7-5|-7--------------|----------------|
b||-5-----5-----5--|--5--------------|----------------|----------------|
G||-5-----5-----5--|--5--------------|---8-----7-----7|---8-----7-----7|
D||----------------|-----------------|-----9-----9----|-----9-----9----|
A||-0-----0-----0--|0-----0-------0--|-0-----0-----0--|-0-----0-----0--|
E||----------------|-----------------|----------------|----------------|

e||-----5-----7----|-8-----10-8-7-5-4|-5--------------|----------------|
b||---6-----6-----6|-----6-----------|-----0-----0----|-----0-----0----|
G||-7-----7-----7--|---7-------------|---5-----5-----5|---5-----5-----5|
D||----------------|-----------------|----------------|----------------|
A||-0-----0-----0--|-0---------------|-0-----0-----0--|-0-----0-----0--|
E||----------------|-------0------0--|----------------|----------------|


Suave y lento
e||------------8---|--------8-------|------------7---|--------7-------|
b||--5h6-5h6-5---5-|--5h6-5---5-5h6-|--4h5-4h5-4---4-|--4h5-4---4-4h5-|
G||--5---5---------|--5---5-----5---|--4---4---------|--4---4-----4---|
D||----------------|----------------|----------------|----------------|
A||-0----0-----0---|-0----0-----0---|-0----0-----0---|-0----0-----0---|
E||----------------|----------------|----------------|----------------|

e||------------7---|--------7-------|------------5---|--------5-------|
b||----------------|----------------|--------------5-|----------5-----|
G||--7h9-7h9-7---7-|--7h9-7---7-7h9-|--5h7-5h7-5-----|--5h7-5-----5h7-|
D||--9---9---------|--9---9-----9---|--7---7---------|--7---7-----7---|
A||-0----0-----0---|-0----0-----0---|-0----0-----0---|-0----0-----0---|
E||----------------|----------------|----------------|----------------|

e||-----8-7-5------|----------------|-----0---5------|------5---------|
b||-----------8-6-5|----------------|-1---0---5------|------5---------|
G||----------------|-7-5-4----------|-2---1---5------|------5---------|
D||----------------|-------7-6-4-6d0|-2--------------|------7---------|
A||---0------------|----------------|-0-------0------|------7---------|
E||-0--------------|----------------|-----0----------|0*****5---------|
Fuerte
00:00 / 00:00
Outros vídeos desta música
Repetir
Outros vídeos desta música
Composição de Astor Piazzolla
1.488 exibições
    • ½ Tom
    • A
    • Bb
    • B
    • C
    • Db
    • D
    • Eb
    • E
    • F
    • F#
    • G
    • Ab
  • Adicionar à lista

    0 comentários

    Ver todos os comentários

    Conseguiu tocar?

    0 Tocaram 0 Ainda não

    Grave um vídeo tocando Libertango e nos envie!

    Toque também

    1. Imagem do artista Carlos Gardel Por Una Cabeza Carlos Gardel
    2. Imagem do artista Adriana Varela Pedacito de Cielo Adriana Varela
    3. Imagem do artista Roberto Goyeneche La noche que te fuiste Roberto Goyeneche
    4. Imagem do artista Daniel Melingo Amablemente Daniel Melingo

    Entre para oCifra Club PRO

    Tenha acesso a benefícios exclusivos no App e no Site

    • Chega de anúncios

    • Prioridade de compra em lançamentos

    • Mais recursos no app do Afinador

    • Atendimento Prioritário

    • Descontos nos produtos Cifra Club

    • Ajude a produzir mais conteúdo

    00:00 / 00:00

    Cifra Club Pro

    Aproveite o Cifra Club com benefícios exclusivos e sem anúncios
    Cifra Club Pro
    Aproveite o Cifra Club com benefícios exclusivos e sem anúncios
    OK