Cifra Club

Aprenda

Agnus Dei

Atmosfera De Adoração

Cifra: Principal (violão e guitarra)
tom: C
Intro:

   C9        F  C9        F G Am                      C9
E|-----------5------------5-7-8---7-5-7---5-3-5---3-1-3--|
B|----5-6-8-----8----5-6-8-------------------------------|
G|-------------------------------------------------------|
D|-------------------------------------------------------|
A|-------------------------------------------------------|
E|-------------------------------------------------------|

   C9        F  C9        F G Am                      C9
E|-----------5------------5-7-8---7-5-7---5-3-5---3-1-3--|
B|----5-6-8-----8----5-6-8-------------------------------|
G|-------------------------------------------------------|
D|-------------------------------------------------------|
A|-------------------------------------------------------|
E|-------------------------------------------------------|

    C9        F G Am         G       C9      G        C9
E|-----------5-7-8-------8-10-10/12-12-----10-10/12-12---|
B|----5-6-8----------------------------------------------|
G|-------------------------------------------------------|
D|-------------------------------------------------------|
A|-------------------------------------------------------|
E|-------------------------------------------------------|

             F    C            Am        G
E|----8-12-12/13-12-----9/10-8-8---8/10-10-10------------|
B|-------------------------------------------------------|
G|-------------------------------------------------------|
D|-------------------------------------------------------|
A|-------------------------------------------------------|
E|-------------------------------------------------------|

                 F        G          F       F       C9
E|----10-12-10-8-5--------10-12-10-8-5-------5-7-7/8-8---|
B|-------------------------------------------------------|
G|-------------------------------------------------------|
D|-------------------------------------------------------|
A|-------------------------------------------------------|
E|-------------------------------------------------------|

 C9             F    C9
A|- a - le - lu - ia 
                F   G    F
A|- a - le - lu - u - ia
            G               F             C9
 Poderoso é o Senhor nosso Deus!!    
 C9             F    C9
A|- a - le - lu - ia
                F   G    F
A|- a - le - lu - u - ia 
          G               F             C9
 Poderoso é o Senhor nosso Deus!!
 C9             F   G    F
A|- a - le - lu - u - ia

Refrão 2x:

   G     C9     G     C9
 San - anto , San - anto
               F    C         Am  G
 é o Senhor Deus , Poderoso                  
                    F    G                F
 digno de louvor,  digno de louvor
  G          C9
A|- a - mém !
Compositor não encontrado.
Colaboração e revisão:
  • Ciro Cabreira
  • daniel fernandes
25.991 exibições
    • ½ Tom
    • A
    • Bb
    • B
    • C
    • Db
    • D
    • Eb
    • E
    • F
    • F#
    • G
    • Ab
  • Adicionar à lista

    0 comentários

    Ver todos os comentários
    00:00 / 00:00
    Outros vídeos desta música
    Repetir Qualidade Automático
    Outros vídeos desta música
    00:00 / 00:00
    Automático

    Cifra Club Pro

    Aproveite o Cifra Club com benefícios exclusivos e sem anúncios
    Cifra Club Pro
    Aproveite o Cifra Club com benefícios exclusivos e sem anúncios
    OK