Notificações Amigos pendentes

      Atreyu

      Ex's And Oh's

      3.333 exibições
      Tom: E
       Intro
          
         4/4
          Gtr III
                                  ~~~
           Q.    E +E  E +Q      +H.          +Q
      ||-----------------------|---------------------|
      ||o-/5-----7-(7)-8-(8)---|-(8)----------(8)\---|
      ||-----------------------|---------------------|
      ||-----------------------|---------------------|
      ||o----------------------|---------------------|
      ||-----------------------|---------------------|
      |
      |   Gtrs I, II
      |    Q   Q    E  E  E  E   +E  E Q  E E  E   E
      ||-----------------------|---------------------|
      ||o----------------------|---------------------|
      ||-----------------------|---------------------|
      ||-----------------------|---------------------|
      ||o--2---2----2--2--2--2-|-(2)-2-2--2-2--2---0-|
      ||---2---2----2--2--2--2-|-(2)-2-2--2-2--2---0-|
      
      
           PM|   PM|   PM--|   PM|
         E E E E E E E E   E E E E E S S E  E
      |------------------|--------------------|
      |-/5-----7-----8---|---7-----7h8p7s5----|
      |----7-7---7-7---7-|-7---7-7----------7-|
      |------------------|--------------------|
      |------------------|--------------------|
      |------------------|--------------------|
      |
      |    PM|   PM|   PM--|   PM|
      |  E E E E E E E E   E E E E E E   Q
      |------------------|--------------------|
      |------------------|--------------------|
      |------------------|--------------------|
      |--7-----7-----7---|---7-----7-7---7\---|
      |--5-----5-----5---|---5-----5-5---5\---|
      |----0-0---0-0---0-|-0---0-0------------|
      
        1.
                       ~
        Q.    E +E   E Q     +H        +Q    Q
      |--------------------|---------------------|
      |-5-----7-(7)s10-8---|-(8)-------(8)s==1S==|
      |--------------------|---------------------|
      |--------------------|---------------------|
      |--------------------|---------------------|
      |--------------------|---------------------|
      |
      | Q   Q    E   E E E    E  E E E  E  E E E
      |--------------------|---------------------|
      |--------------------|---------------------|
      |--------------------|---------------------|
      |-5---5----5---5-5-5-|--5--5-5-5--5--5-5-5-|
      |-3---3----3---3-3-3-|--3--3-3-3--3--3-3-3-|
      |--------------------|---------------------|
      
                                    ~~~~
        Q.    E +E   Q    E        +H        +E   +E      +Q
      |-------------------------|---------------------------------||
      |-7-----8-(8)-10---10b12==|=(10)------(10)r(10)b12-(10)\---o||
      |-------------------------|---------------------------------||
      |-------------------------|---------------------------------||
      |-------------------------|--------------------------------o||
      |-------------------------|---------------------------------||
      |
      | Q   E E  E   E E  E        +E  E Q    E    E       E   E
      |-------------------------|---------------------------------||
      |-------------------------|--------------------------------o||
      |-------------------------|---------------------------------||
      |-5---5-5--5---5-5--5-----|--(5)-5-5----5----5-------5------||
      |-2---2-2--2---2-2--2-----|--(2)-2-2----2----2-------2---0-o||
      |-------------------------|------------------------------0--||
      
        2.
                                      ~
        Q.    E +E   Q    E    +E   E Q  +Q    Q
      |---------------------|----------------------|
      |-5-----7-(7)s10---10-|-(10)S12S8--(8)s==3---|
      |---------------------|----------------------|
      |---------------------|----------------------|
      |---------------------|----------------------|
      |---------------------|----------------------|
      |
      | Q   Q    E   E E  E    +Q     Q   E  E E E
      |---------------------|----------------------|
      |---------------------|----------------------|
      |---------------------|----------------------|
      |-5---5----5---5-5--5-|--(5)----5---5--5-5-5-|
      |-3---3----3---3-3--3-|--(3)----3---3--3-3-3-|
      |---------------------|----------------------|
      
        TP
        Q.    E +E   Q    E        +Q     +Q    H
      |-------------------------|-----------------------||
      |-7-----8-(8)-10---13b15==|=(13)---(13)\----------||
      |-------------------------|-----------------------||
      |-------------------------|-----------------------||
      |-------------------------|-----------------------||
      |-------------------------|-----------------------||
      |
      | Q   Q    E   E E  E        +E  E   Q    E E E E
      |-------------------------|-----------------------||
      |-------------------------|-----------------------||
      |-------------------------|-----------------------||
      |-5---5----5---5-5--5-----|--(5)-5---5------------||
      |-2---2----2---2-2--2-----|--(2)-2---2----5-3-2-2-||
      |-------------------------|---------------------2-||
      
       1st Verse
        Gtrs I, II
                                                      PM--|
        +W           +W           +W           +H     E E E E
      
      |------------|------------|------------|----------------|
      |------------|------------|------------|----------------|
      |------------|------------|------------|----------------|
      |------------|------------|------------|----------------|
      |-(2)--------|-(2)--------|-(2)--------|-(2)----------0-|
      |-(2)--------|-(2)--------|-(2)--------|-(2)----5-4-3-0-|
      
      
        Gtr I
        +W           +W                 E  E E  E  E  E  E  E    E E E E E E Q
      |------------|----------------|-------------------------|-------------------|
      |------------|----------------|-------------------------|-------------------|
      |------------|----------------|-/16-16---11-11-11-12-12-|-12-9-9-9-9-9-9/---|
      |------------|----------------|-------------------------|-------------------|
      |-(0)--------|-(0)------------|-/14-14----9--9--9-10-10-|-10-7-7-7-7-7-7/---|
      |-(0)--------|-(0)------------|--------0----------------|-------------------|
      |
      | Gtr II
      |                     PM----|
      | +W           +H     E E E E     E  E E  E  E  E  E  E    E E E E E E E  E
      |------------|----------------|-------------------------|-------------------|
      |------------|----------------|-------------------------|-------------------|
      |------------|----------------|---5--5-5--5--5--5--5--5-|--7-7-7-7----------|
      |------------|----------------|-------------------------|-------------------|
      |-(0)--------|-(0)------------|---3--3-3--3--3--3--3--3-|--5-5-5-5-5-3-2--2-|
      |-(0)--------|-(0)----0-2-4-0-|-------------------------|-----------------2-|
      
          E   E E  E  E  E  E  E    E  E E E E E Q
      |--------------------------|-------------------|
      |--------------------------|-------------------|
      |-/16--16---11-11-11-12-12-|-12--9-9-9-9-9-9/--|
      |--------------------------|-------------------|
      |-/14--14----9--9--9-10-10-|-10--7-7-7-7-7-7/--|
      |---------0----------------|-------------------|
      |
      |  +W                        +W
      |--------------------------|-------------------|
      |--------------------------|-------------------|
      |--------------------------|-------------------|
      |--------------------------|-------------------|
      |--(2)---------------------|-(2)---------------|
      |--(2)---------------------|-(2)---------------|
      
          E   E E  E  E  E  E  E    E  E E E E E Q
      |--------------------------|--------------------|
      |--------------------------|--------------------|
      |-/16--16---11-11-11-12-12-|-12--9-9-9-9-9-9/---|
      |--------------------------|--------------------|
      |-/14--14----9--9--9-10-10-|-10--7-7-7-7-7-7/---|
      |---------0----------------|--------------------|
      |
      |                                      PM--|
      |  +W                        +H        E E E  E
      |--------------------------|--------------------|
      |--------------------------|--------------------|
      |--------------------------|--------------------|
      |--------------------------|--------------------|
      |--(2)---------------------|-(2)--------------0-|
      |--(2)---------------------|-(2)-------5-3-2--0-|
      
      
          E   E E  E  E  E  E  E    E  E E E E E Q
      |--------------------------|--------------------|
      |--------------------------|--------------------|
      |-/16--16---11-11-11-12-12-|-12--9-9-9-9-9-9/---|
      |--------------------------|--------------------|
      |-/14--14----9--9--9-10-10-|-10--7-7-7-7-7-7/---|
      |---------0----------------|--------------------|
      |
      |                                      PM-----|
      |  +W                        +H        E E E  E
      |--------------------------|--------------------|
      |--------------------------|--------------------|
      |--------------------------|--------------------|
      |--------------------------|--------------------|
      |--(0)---------------------|-(0)----------------|
      |--(0)---------------------|-(0)-------0-2-4--0-|
      
          E  E E  E  Q    E  E   E   E  E  E  Q.   E
      |------------------------|---------------------||
      |------------------------|---------------------||
      |-/16-16---11-11---12-12-|---/17-17-17-16------||
      |------------------------|---------------------||
      |-/14-14----9--9---10-10-|---/15-15-15-14----x-||
      |--------0---------------|-0-----------------x-||
      |
      |   E  E E  E  E E  E  E   E   E  E  E  H
      |------------------------|---------------------||
      |------------------------|---------------------||
      |---5--5-5--5--5-5--5--5-|-7---7--7--7--4------||
      |------------------------|---------------------||
      |---3--3-3--3--3-3--3--3-|-5---5--5--5--2------||
      |------------------------|---------------------||
      
         Chorus
          $
          Gtr III
                                                  PM|   PM|   PM--|   PM|
          E E E E E E E E    E  E E E E E E E   E E E E E E E E   E E E E E E E  E
      ||--0-0-0-0-0-0-0-0-|--0--0-0-0-0-0-0-0-|-----------------|-------------------|
      ||o-5-5-5-7-7-7-8-8-|--8--8-8-8-8-8-8-5-|-5-5-5-7-7-7-8-8-|-8-7-7-7-7-7-7--7--|
      ||------------------|-------------------|-7-7-7-7-7-7-7-7-|-7-7-7-7-7-7-7--7--|
      ||------------------|-------------------|-----------------|-------------------|
      ||o-----------------|-------------------|-----------------|-------------------|
      ||------------------|-------------------|-----------------|-------------------|
      |
      |   Gtrs I, II
      |                                           PM|   PM|   PM--|   PM|
      |   Q   Q   E E E E   +E  E Q   E E E E   E E E E E E E E   E E E E E E Q
      ||------------------|-------------------|-----------------|-------------------|
      ||o-----------------|-------------------|-----------------|-------------------|
      ||------------------|-------------------|-----------------|-------------------|
      ||------------------|-------------------|-7-----7-----7---|---7-----7-7-7\----|
      ||o-2---2---2-2-2-2-|-(2)-2-2---2-2-2-0-|-5-----5-----5---|---5-----5-5-5\----|
      ||--2---2---2-2-2-2-|-(2)-2-2---2-2-2-0-|---0-0---0-0---0-|-0---0-0-----------|
      
        E E E E E E E E   E E E E E E E E
      |-0-0-0-0-0-0-0-0-|-0-0-0-0-0-0-0-0-|
      |-5-5-5-7-7-7-8-8-|-8-8-8-8-8-8-8-5-|
      |-----------------|-----------------|
      |-----------------|-----------------|
      |-----------------|-----------------|
      |-----------------|-----------------|
      |
      | Q   Q   E E E E   E E E E E E E E
      |-----------------|-----------------|
      |-----------------|-----------------|
      |-----------------|-----------------|
      |-5---5---5-5-5-5-|-5-5-5-5-5-5-5-5-|
      |-3---3---3-3-3-3-|-3-3-3-3-3-3-3-3-|
      |-----------------|-----------------|
      
                To Coda
        E E E E E E  E  E    E   E  E  E  E  E  E  E
      |-------------------|---------------------------||
      |-7-7-7-8-8-8-10-10-|-10--10-10-10-10-10-10-10-o||
      |-8-8-8-8-8-8--8--8-|--8---8--8--8--8--8--8--8--||
      |-------------------|---------------------------||
      |-------------------|--------------------------o||
      |-------------------|---------------------------||
      |
      |                                   PM---|
      | Q   E E E E  E  E   +E   E  Q     E  E  E  E
      |-------------------|---------------------------||
      |-------------------|--------------------------o||
      |-------------------|---------------------------||
      |-5---5-5-5-5--5--5-|-(5)--5--5-----------------||
      |-2---2-2-2-2--2--2-|-(2)--2--2-----5--3--2--2-o||
      |-------------------|------------------------2--||
      
       2nd Verso
        Gtrs I, II
                                                      PM--|
        +W           +W           +W           +H     E E E E
      
      |------------|------------|------------|----------------|
      |------------|------------|------------|----------------|
      |------------|------------|------------|----------------|
      |------------|------------|------------|----------------|
      |-(2)--------|-(2)--------|-(2)--------|-(2)----------0-|
      |-(2)--------|-(2)--------|-(2)--------|-(2)----5-3-2-0-|
      
      
                            PM----|                             PM--|
        +W           +H     E E E E   E E E E E E E E   E E E E E E E E
      
      |------------|----------------|-----------------|-----------------|
      |------------|----------------|-----------------|-----------------|
      |------------|----------------|-5-5-5-5-5-5-5-5-|-5-5-5-5---------|
      |------------|----------------|-----------------|-----------------|
      |-(0)--------|-(0)------------|-3-3-3-3-3-3-3-3-|-3-3-3-3-5-3-2---|
      |-(0)--------|-(0)----0-2-4-0-|-----------------|---------------5-|
      
      
              PM--------------------|             PM--------------------------|
      
        +E  E E E E E E E   E E E E E E E E   +E  E E E E E E E   E E E E E E E E
      
      |-------------------|-----------------|-------------------|-----------------|
      |-------------------|-----------------|-------------------|-----------------|
      |-------------------|-----------------|-------------------|-----------------|
      |-------------------|-----------------|-------------------|-----------------|
      |-------2-2-2-2-2-2-|-2-2-2-2-2-------|-----2-2-2-2-2-2-2-|-2-2-2-2---------|
      |-(5)-2-2-2-2-2-2-2-|-2-2-2-2-2-5---5-|-(5)-2-2-2-2-2-2-2-|-2-2-2-2-5-3-2-2-|
      
      
        Gtr I
      
              PM------------------|
      
        +E  E E E E E E E   E E E E E E E E
      |-------------------|-----------------|
      |-------------------|-----------------|
      |-------------------|-----------------|
      |-------------------|-----------------|
      |-------0-0-0-0-0-0-|-0-0-0-0---------|
      |-(2)-0-0-0-0-0-0-0-|-0-0-0-0-0-2-4-0-|
      |
      | Gtr II
      |       PM------------------|
      | +E  E E E E E E E   E E E E E E E E
      |-------------------|-----------------|
      |-------------------|-----------------|
      |-------------------|-----------------|
      |-------------------|-----------------|
      |-------0-0-0-0-0-0-|-0-0-0-0---------|
      |-(2)-0-0-0-0-0-0-0-|-0-0-0-0-0-2-4-0-|
      
        E E E  E  E  E   E  E    E  E  E  E  E  E  E  E
      |-----------------------|-------------------------||
      |-----------------------|-------------------------||
      |-9-9-9-11-11-11-/17-17-|-17-17-17-17-17-17-17-17-||
      |-----------------------|-------------------------||
      |-7-7-7--9--9--9-/15-15-|-15-15-15-15-15-15-15-15-||
      |-----------------------|-------------------------||
      |
      | E E E  E  E  E   E  E    E  E  E  E  E  E  E  E
      |-----------------------|-------------------------||
      |-----------------------|-------------------------||
      |-5-5-5--5--5--5---5s=9-|--9--9--9--9--9--9--9--9-||
      |-----------------------|-------------------------||
      |-3-3-3--3--3--3---3s=7-|--7--7--7--7--7--7--7--7-||
      |-----------------------|-------------------------||
      
         Ponte
          Gtr III
          E E E E +E  E E E   +E   E  E  E +E   E  E  E
      ||--7-----7-(7)-----7-|-(7)--------7-(7)--------7-|
      ||o---8---------8-----|------8------------8-------|
      ||------9---------9---|--------11-----------11----|
      ||--------------------|---------------------------|
      ||o-------------------|---------------------------|
      ||--------------------|---------------------------|
      |
      |   Gtr II
      |     E E E  E  E E E    E   E  E  E  E   E  E  E
      ||--------------------|---------------------------|
      ||o-------------------|---------------------------|
      ||----9-9-9--9--9-9-9-|-11--11-11-11-11--11-11-11-|
      ||--------------------|---------------------------|
      ||o---7-7-7--7--7-7-7-|--9---9--9--9--9---9--9--9-|
      ||--------------------|---------------------------|
      |
      |   Gtr I
      |   E E E E  E  E E E    E   E  E  E  E   E  E  E
      ||--------------------|---------------------------|
      ||o-------------------|---------------------------|
      ||--------------------|---------------------------|
      ||--5-5-5-5--5--5-5-5-|--5---5--5--5--5---5--5--0-|
      ||o-3-3-3-3--3--3-3-3-|--2---2--2--2--2---2--2--0-|
      ||--------------------|---------------------------|
      
        +E   E  E  E +E   E  E  E    +E  E E  E  +E  E Q
      |-(7)--------7-(7)-------10-|-(10)-----10-(10)--------|
      |------8------------8-------|------8-----------8------|
      |---------9------------9----|--------7-----------9----|
      |---------------------------|-------------------------|
      |---------------------------|-------------------------|
      |---------------------------|-------------------------|
      |
      |  E   E  E  E  E   E  E  E     E  E E  E   E  E E E
      |---------------------------|-------------------------|
      |---------------------------|-------------------------|
      |-12--12-12-12-12--12-12-12-|---7--7-7--7---7--7-7-7--|
      |---------------------------|-------------------------|
      |-10--10-10-10-10--10-10-10-|---5--5-5--5---5--5-5-5--|
      |---------------------------|-------------------------|
      |
      |  E   E  E  E  E   E  E  E     E  E E  E   E  E E E
      |---------------------------|-------------------------|
      |---------------------------|-------------------------|
      |---------------------------|-------------------------|
      |---------------------------|-------------------------|
      |--2---2--2--2--2---2--2--2-|---5--5-5--5---5--5-5-5--|
      |--2---2--2--2--2---2--2--2-|---5--5-5--5---5--5-5-5--|
      
        1.
        E E E E +E  E E E   +E   E  E  E +E   E  q
      |-7-----7-(7)-----7-|-(7)--------7-(7)----------|
      |---8---------8-----|------8------------8-------|
      |-----9---------9---|--------11-----------11----|
      |-------------------|---------------------------|
      |-------------------|---------------------------|
      |-------------------|---------------------------|
      |
      | E E E E  E  E E E    E   E  E  E  E   E  E  E
      |-------------------|---------------------------|
      |-------------------|---------------------------|
      |-9-9-9-9--9--9-9-9-|-11--11-11-11-11--11-11-12-|
      |-------------------|---------------------------|
      |-7-7-7-7--7--7-7-7-|--9---9--9--9--9---9--9-10-|
      |-------------------|---------------------------|
      |
      |                                          PM
      | E E E E  E  E E E    E   E  E  E  E   E  E  E
      |-------------------|---------------------------|
      |-------------------|---------------------------|
      |-------------------|---------------------------|
      |-5-5-5-5--5--5-5-5-|--5---5--5--5--5---5-------|
      |-3-3-3-3--3--3-3-3-|--2---2--2--2--2---2-----1-|
      |-------------------|----------------------0--1-|
      
          W                         W
      |--------------------------|-----------------------||
      |--------------------------|----------------------o||
      |--------------------------|-----------------------||
      |--------------------------|-----------------------||
      |--------------------------|----------------------o||
      |--------------------------|-----------------------||
      |
      |  +E   E E  E  +E   E E E   +E  E E E +E  E Q
      |--------------------------|-----------------------||
      |--------------------------|----------------------o||
      |-(12)-12---12-(12)-12---9-|-(9)-9---9-(9)-7-4/----||
      |--------------------------|-----------------------||
      |-(10)-10---10-(10)-10---7-|-(7)-7---7-(7)-5-2/---o||
      |--------------------------|-----------------------||
      |
      |  +E   E E  E  +E   E E E   +E  E E E +E  E E  E
      |--------------------------|-----------------------||
      |--------------------------|----------------------o||
      |--------------------------|-----------------------||
      |--------------------------|-----------------------||
      |--(1)--1----1--(1)--1---2-|-(2)-2---2-(2)-2----0-o||
      |--(1)--1----1--(1)--1---2-|-(2)-2---2-(2)-2----0--||
      
        2.
        E E E E +E  E E E   +E   E  E  E +E   E   q
      |-7-----7-(7)-----7-|-(7)--------7-(7)----------|
      |---8---------8-----|------8------------8-------|
      |-----9---------9---|--------11------------11---|
      |-------------------|---------------------------|
      |-------------------|---------------------------|
      |-------------------|---------------------------|
      |
      | E E E E  E  E E E    E   E  E  E  E   Q     E
      |-------------------|---------------------------|
      |-------------------|---------------------------|
      |-9-9-9-9--9--9-9-9-|-11--11-11-11-11--11\----8-|
      |-------------------|---------------------------|
      |-7-7-7-7--7--7-7-7-|--9---9--9--9--9---9\----6-|
      |-------------------|---------------------------|
      |
      |                                           PM
      | E E E E  E  E E E    E   E  E  E  E   E   E E
      |-------------------|---------------------------|
      |-------------------|---------------------------|
      |-------------------|---------------------------|
      |-5-5-5-5--5--5-5-5-|--5---5--5--5--5---5-------|
      |-3-3-3-3--3--3-3-3-|--2---2--2--2--2---2-----1-|
      |-------------------|-----------------------0-1-|
      
         W                     W
      |---------------------|---------------------|
      |---------------------|---------------------|
      |---------------------|---------------------|
      |---------------------|---------------------|
      |---------------------|---------------------|
      |---------------------|---------------------|
      |
      | +E  E E E +E  E E E   +E  E E E +E  E E E
      |---------------------|---------------------|
      |---------------------|---------------------|
      |-(8)-8---8-(8)-8---9-|-(9)-9---9-(9)-9---8-|
      |---------------------|---------------------|
      |-(6)-6---6-(6)-6---7-|-(7)-7---7-(7)-7---6-|
      |---------------------|---------------------|
      |
      | +E  E E E +E  E E E   +E  E E E +E  E E E
      |---------------------|---------------------|
      |---------------------|---------------------|
      |---------------------|---------------------|
      |---------------------|---------------------|
      |-(1)-1---1-(1)-1---2-|-(2)-2---2-(2)-2---1-|
      |-(1)-1---1-(1)-1---2-|-(2)-2---2-(2)-2---1-|
      
      
        Gtr II                Gtr IV
        +E  E E E +E  E E E   Q   E   E   H
      |---------------------|----------------||
      |---------------------|----------------||
      |-(8)-8---8-(8)-8---9-|----------------||
      |---------------------|-------------------||
      |-(6)-6---6-(6)-6---7-|-------------------||
      |---------------------|-------------------||
      |
      | Gtr I
      | +E  E E E +E  E E E   W
      |---------------------|-------------------||
      |---------------------|-------------------||
      |---------------------|-------------------||
      |---------------------|-------------------||
      |-(1)-1---1-(1)-1-1-2-|-------------------||
      |-(1)-1---1-(1)-1-1-2-|-------------------||
      
       1st Guitar Solo
                                      ~~~
         H.               +E   +E     H.            E  E
      |-12-------------------------|---------------------|
      |-15b17============(15)r(15)-|-12------------12-13-|
      |----------------------------|---------------------|
      |----------------------------|---------------------|
      |----------------------------|---------------------|
      |----------------------------|---------------------|
      |
      | Gtrs I, II
      |  E     E E E E E   E    E     E  E E E E E  E  E
      |----------------------------|---------------------|
      |----------------------------|---------------------|
      |----------------------------|---------------------|
      |--5-----5-5-5-5-5---5----5--|--5--5-5-5-5-5--5----|
      |--3-----3-3-3-3-3---3----3--|--3--3-3-3-3-3--3--0-|
      |----------------------------|-------------------0-|
      
         S S S  S S S  S S  S S S  S S S  S S
      |-12-0-0--------------------------------|
      |--------12-0-0-------------------------|
      |---------------12-0-11-0-0-12-0-0-11-0-|
      |---------------------------------------|
      |---------------------------------------|
      |---------------------------------------|
      |
      |  Q        Q         E   E    E    E
      |---------------------------------------|
      |---------------------------------------|
      |---------------------------------------|
      |---------------------------------------|
      |--2--------2---------2---2----2----2---|
      |--2--------2---------2---2----2----2---|
      
                 ~~~
         Q  Q    Q    +E  E   E S S E S S E S S  E S S
      |---------------------|-----5s7---------8s10------|
      |---------------------|---3-----5-----7------8----|
      |-/9--8S==[4]---(4)s0-|-2---------4-5----------7--|
      |---------------------|---------------------------|
      |---------------------|---------------------------|
      |---------------------|---------------------------|
      |
      |  Q  E E  E  E  E  E   E E   E E   E E    E E
      |---------------------|---------------------------|
      |---------------------|---------------------------|
      |---------------------|---------------------------|
      |---------------------|-5-5---5-5---5-5----5-5----|
      |--2--2-2--2--2--2--0-|-3-3---3-3---3-3----3-3----|
      |--2--2-2--2--2--2--0-|---------------------------|
      
        E S  S  E  S S E  S  S  E   E
      |-----10s12-----------12s15-/11-|
      |---8-------10-----10-----------|
      |-7------------9-9--------------|
      |-------------------------------|
      |-------------------------------|
      |-------------------------------|
      |
      |                         PM
      | E E     E  E   E  E     E   E
      |-------------------------------|
      |-------------------------------|
      |-------------------------------|
      |-5-5-----5--5---5--5-----------|
      |-3-3-----3--3---3--3-----0---1-|
      |-------------------------0---1-|
      
                                                              Gtr III
                                                    ~~~
         +E   E  E   E  +E   E E  E    +E   E  E E +Q    +E    E
      |-(11)-11\---/11-(11)-11---12-|-(12)-12-10s7-(7)---(7)\-h5-||
      |-----------------------------|----------------------------||
      |-----------------------------|----------------------------||
      |-----------------------------|----------------------------||
      |-----------------------------|----------------------------||
      |-----------------------------|----------------------------||
      |
      |  +E   E  E   E  +E   E E  E    +E   E  E E +E  E  E    E
      |-----------------------------|----------------------------||
      |-----------------------------|----------------------------||
      |-----------------------------|----------------------------||
      |-----------------------------|----------------------------||
      |--(1)--1------1--(1)--1----2-|--(2)--2----2-(2)-2--2----0-||
      |--(1)--1------1--(1)--1----2-|--(2)--2----2-(2)-2--2----0-||
      
       2nd Guitar Solo
        Gtr III
         T        T        T            T
         S S S S  S S S S  S S S S S S  S S
      |-12p5h7h8-12p8p7p5-------------------|
      |-------------------12p8p7p5h7h8-10p8p|
      |-------------------------------------|
      |-------------------------------------|
      |-------------------------------------|
      |-------------------------------------|
      |
      | Gtrs I, II
      |  E   E    E   E    E   E   E    E
      |-------------------------------------|
      |-------------------------------------|
      |-------------------------------------|
      |--5---5----5---5----5---5---5----5---|
      |--3---3----3---3----3---3---3----3---|
      |-------------------------------------|
      
            T     T     T        T            PM     PM|
      
                                 |-3-|
      
        S S S S S S S S S S S  S S S S E   Q  E  E E E E  E
      |----------------------------------|--------------------|
      |-7p5------------------------------|--------------------|
      |-----9p5h7-9p5h7------------------|---------------12---|
      |-----------------9p7p5------------|------10-9----------|
      |-----------------------h7-9p7p5p0-|----7------7-7------|
      |----------------------------------|--------------------|
      |
      | E   E   E   E   E   E    E     E   Q  Q    E E E  E
      |----------------------------------|--------------------|
      |----------------------------------|--------------------|
      |----------------------------------|--------------------|
      |-5---5---5---5---5---5----5-------|--------------------|
      |-3---3---3---3---3---3----3-----0-|-2--2----2-2-2--2---|
      |--------------------------------0-|-2--2----2-2-2--2---|
      
                              ~~~~
         +E   Q   E +E  Q     E     +E   S  S  S  S  S  S  S  S  S  S  S  S  S  S
      |--------------------------|---------12-15p12----12-17p12----12-15p12----12-|
      |--------------------------|------15----------15----------15----------15----|
      |-(12)-11---9-(9)----------|------------------------------------------------|
      |-----------------9---[10]-|-(10)-------------------------------------------|
      |--------------------------|------------------------------------------------|
      |--------------------------|------------------------------------------------|
      |
      |   Q     E E  E  E E   E      E   E     E     E     E     E     E     E
      |--------------------------|------------------------------------------------|
      |--------------------------|------------------------------------------------|
      |--------------------------|------------------------------------------------|
      |--------------------------|---5---5-----5-----5-----5-----5-----5-----5----|
      |---2-----2-2--2--2-2---0--|---3---3-----3-----3-----3-----3-----3-----3----|
      |---2-----2-2--2--2-2---0--|------------------------------------------------|
      
                                 ~~~~
         S  S  S  S  +E   E     +Q.       E
      |-17p12----12-(12)-17b19-(17)----------|
      |-------15------------------------[16]-|
      |--------------------------------------|
      |--------------------------------------|
      |--------------------------------------|
      |--------------------------------------|
      |
      |                               PM
      |  E     E      E   E      E  E E   E
      |--------------------------------------|
      |--------------------------------------|
      |--------------------------------------|
      |--5-----5------5---5------5--5--------|
      |--3-----3------3---3------3--3-0---1--|
      |-------------------------------0---1--|
      
          \5__________/
                                                      ~~~~
         +H          +Q.      E    +Q        +E   E  +Q     +Q
      |-------------------------|----------------------------------|
      |-(16)--------(16)-----19-|-(19)b20---(19)-17-(17)---(17)\---|
      |-------------------------|----------------------------------|
      |-------------------------|----------------------------------|
      |-------------------------|----------------------------------|
      |-------------------------|----------------------------------|
      |
      |   E   E E E  +E  E E  E    +E     E   E   E  +E  E   E   E
      |-------------------------|----------------------------------|
      |-------------------------|----------------------------------|
      |-------------------------|----------------------------------|
      |-------------------------|----------------------------------|
      |---1---1---1--(1)-1----2-|--(2)----2-------2--(2)-2-------1-|
      |---1---1---1--(1)-1----2-|--(2)----2-------2--(2)-2-------1-|
      
                                                       \7
            
                                 |-3-|
      
         S S S  S S S  S S  S   S S S  S S S  E       +W
      |-10-8-7--------10-8--7---------10-8-7-12----|-(12)----||
      |--------10-8-7----------10-8-7--------15b17-|-(15)----||
      |--------------------------------------------|---------||
      |--------------------------------------------|---------||
      |--------------------------------------------|---------||
      |--------------------------------------------|---------||
      |
      |  E   E    E    E   +E     E    E      E        W
      |--------------------------------------------|---------||
      |--------------------------------------------|---------||
      |--------------------------------------------|---------||
      |--------------------------------------------|---------||
      |--1---1---------1---(1)----1----1------2----|---------||
      |--1---1---------1---(1)----1----1------2----|---------||
      
      
       Interlude
        Gtr III
        E E E E E E E E    E  E E E E E E E    E  E E E E E E E    E  E E E E E E E
      |-0-0-0-0-0-0-0-0-|--0--0-0-0-0-0-0-0-|-------------------|-------------------|
      |-5-5-5-7-7-7-8-8-|--8--8-8-8-8-8-8-5-|--5--5-5-7-7-7-8-8-|--8--7-7-7-7-7-7-5-|
      |-----------------|-------------------|--7--7-7-7-7-7-7-7-|--7--7-7-7-7-7-7-5-|
      |-----------------|-------------------|-------------------|-------------------|
      |-----------------|-------------------|-------------------|-------------------|
      |-----------------|-------------------|-------------------|-------------------|
      |
      | Gtrs I, II
      | W                 +W                  +W                  +W
      |-----------------|-------------------|-------------------|-------------------|
      |-----------------|-------------------|-------------------|-------------------|
      |-----------------|-------------------|-------------------|-------------------|
      |-----------------|-------------------|-------------------|-------------------|
      |-2---------------|-(2)---------------|-(2)---------------|-(2)---------------|
      |-2---------------|-(2)---------------|-(2)---------------|-(2)---------------|
      
         E  E E E E E E E    E  E E E E E E E
      |--0--0-0-0-0-0-0-0-|--0--0-0-0-0-0-0-0-|
      |--5--5-5-7-7-7-8-8-|--8--8-8-8-8-8-8-5-|
      |-------------------|-------------------|
      |-------------------|-------------------|
      |-------------------|-------------------|
      |-------------------|-------------------|
      |
      | +W                  +W
      |-------------------|-------------------|
      |-------------------|-------------------|
      |-------------------|-------------------|
      |-------------------|-------------------|
      |-(2)---------------|-(2)---------------|
      |-(2)---------------|-(2)---------------|
      
         E  E E E E E  E  E    E   E  E  E  E  E  E  E
      |---------------------|--------------------------|
      |--7--7-7-8-8-8-10-10-|-10--10-10-10-10-10-10-10-|
      |--8--8-8-8-8-8--8--8-|--8---8--8--8--8--8--8--8-|
      |---------------------|--------------------------|
      |---------------------|--------------------------|
      |---------------------|--------------------------|
      |
      | +W                    +W
      |---------------------|--------------------------|
      |---------------------|--------------------------|
      |---------------------|--------------------------|
      |---------------------|--------------------------|
      |-(2)-----------------|-(2)----------------------|
      |-(2)-----------------|-(2)----------------------|
      
        E E E E E E E E   E E E E E E E E   E E E E E E E E   E E E E E E E E
      |-0-0-0-0-0-0-0-0-|-0-0-0-0-0-0-0-0-|-----------------|-----------------|
      |-5-5-5-7-7-7-8-8-|-8-8-8-8-8-8-8-5-|-5-5-5-7-7-7-8-8-|-8-7-7-7-7-7-7-5-|
      |-----------------|-----------------|-7-7-7-7-7-7-7-7-|-7-7-7-7-7-7-7-5-|
      |-----------------|-----------------|-----------------|-----------------|
      |-----------------|-----------------|-----------------|-----------------|
      |-----------------|-----------------|-----------------|-----------------|
      |
      |   PM|   PM|   PM--|   PM|             PM|   PM|   PM--|   PM|
      | E E E E E E E E   E E E E E E E E   E E E E E E E E   E E E E E E E E
      |-----------------|-----------------|-----------------|-----------------|
      |-----------------|-----------------|-----------------|-----------------|
      |-----------------|-----------------|-----------------|-----------------|
      |-----------------|-----------------|-----------------|-----------------|
      |-2-2-2-2-2-2-2-2-|-2-2-2-2-2-2-2-2-|-0-0-0-0-0-0-0-0-|-0-0-0-0-0-0-0-0-|
      |-2-2-2-2-2-2-2-2-|-2-2-2-2-2-2-2-2-|-0-0-0-0-0-0-0-0-|-0-0-0-0-0-0-0-0-|
      
                                                             D.S. al Coda
        E E E E E E E E   E E E E E E E E   E E E E E E  Q     +W
      |-0-0-0-0-0-0-0-0-|-0-0-0-0-0-0-0-0-|-----------------|-------------||
      |-5-5-5-7-7-7-8-8-|-8-8-8-8-8-8-8-5-|-7-7-7-8-8-8-10--|-(10)--------||
      |-----------------|-----------------|-8-8-8-8-8-8--8--|--(8)--------||
      |-----------------|-----------------|-----------------|-------------||
      |-----------------|-----------------|-----------------|-------------||
      |-----------------|-----------------|-----------------|-------------||
      |
      | E E E E E E E E   E E E E E E E E   W                  +W
      |-----------------|-----------------|-----------------|-------------||
      |-----------------|-----------------|-----------------|-------------||
      |-----------------|-----------------|-----------------|-------------||
      |-5-5-5-5-5-5-5-5-|-5-5-5-5-5-5-5-5-|-5---------------|--(5)--------||
      |-3-3-3-3-3-3-3-3-|-3-3-3-3-3-3-3-3-|-2---------------|--(2)--------||
      |-----------------|-----------------|-----------------|-------------||
      
        &
         E  E  E  E H        W
      |--------------------|------*|
      |-10-10-10-10--------|------*|
      |--8--8--8--8--------|------*|
      |--------------------|------*|
      |--------------------|------*|
      |--------------------|------*|
      |
      |             PM|
      |  E  E  E  E E E Q    W
      |--------------------|------*|
      |--------------------|------*|
      |--------------------|------*|
      |--5--5--5--5--------|------*|
      |--2--2--2--2-5-3-2--|-2----*|
      |--------------------|-2----*|

      Comentários 0

      140 .
      140 cancelar

      conseguiu tocar?

      covers

      Grave um vídeo tocando Ex's And Oh's e mande pra gente!

      Ex.: http://www.youtube.com/watch?v=0IvSvIwGdwk
      ver covers de outras músicas »
      0:00 / 0:00

      Capítulos

        4 versões de guitarra dificuldade exibições contribuição e correção
        3 versões de baixo exibições contribuição e correção
        play/pausefechar subir/descer velocidade
        6ª corda E5ª corda A4ª corda D3ª corda G2ª corda B1ª corda E
          acordes
          publicidade
          fechar
          ok