Wide Awake

Audioslave

Composição: Audioslave / Chris Cornell
Tom: F
Drop D tuning

Verso:
E|-------------------------------------|
B|-------------------------------------|
G|-7--------5--------10-------9*-------|
D|-x-(x32)--x-(x16)--x-(x8)---x-(x8)---|
A|-5--------3--------8--------7--------|
D|-------------------------------------|

Pré-Refrão:
E|--------------------------------x2|----------|
B|----------------------------------|----------|
G|-7--------3--------7-------10-----|-9--------|
D|-x-(x32)--x-(x16)--x-(x8)--x-(x8)-|-x-(x32)--|
A|-5--------1--------5-------8------|-7--------|
D|----------------------------------|----------|

Refrão:
E|----------------------------------------------------x2|------------------|
B|------------------------------------------------------|------------------|
G|-7--------5------10------10------3------7------5------|-1010101012121212-|
D|-7--------5------10------10------3------7------5------|-1010101012121212-|
A|-5-(x16)--3-(x8)-8--(x4)-7--(x4)-1-(x8)-5-(x8)-3-(x8)-|-8-8-8-8-10101010-|
D|------------------------------------------------------|------------------|

Ponte:
E|----------------|
B|-33-33-33-33-33-| play this a few times
G|----------------|
D|----------------|
A|----------------|
D|----------------|

Verso:
E|-------------------------------------|
B|-------------------------------------|
G|-7--------5--------10-------9*-------|
D|-x-(x32)--x-(x16)--x-(x8)---x-(x8)---|
A|-5--------3--------8--------7--------|
D|-------------------------------------|

Pré-Refrão:
E|--------------------------------x1|----------|
B|----------------------------------|----------|
G|-7--------3--------7-------10-----|-9--------|
D|-x-(x32)--x-(x16)--x-(x8)--x-(x8)-|-x-(x32)--|
A|-5--------1--------5-------8------|-7--------|
D|----------------------------------|----------|

Refrão:
E|----------------------------------------------------x2|------------------|
B|------------------------------------------------------|------------------|
G|-7--------5------10------10------3------7------5------|-1010101012121212-|
D|-7--------5------10------10------3------7------5------|-1010101012121212-|
A|-5-(x16)--3-(x8)-8--(x4)-7--(x4)-1-(x8)-5-(x8)-3-(x8)-|-8-8-8-8-10101010-|
D|------------------------------------------------------|------------------|

Solo:
E|---------------------------------------------------------------------------|
B|---------------------------------------------------------------------------|
G|---------------------------------------------------------------------------|
D|-------5-------------5-------7-5-3-5~--7-5-3-5~--8-7-5-7-5-3~--8-7-5-7-5-3~|
A|-5-7-8---8-7~--5-7-8---8-7~------------------------------------------------|
D|-------------------------------------------------8-7-5-7-5-3~--8-7-5-7-5-3~|

E|----------------------------------|
B|----------------------------------|
G|----------------------------------|
D|-10--8--7--5--3--2--0-------------|
A|-----------------------3--5~------|
D|----------------------------------|
 
Refrão:
E|----------------------------------------------------x2|------------------|
B|------------------------------------------------------|------------------|
G|-7--------5------10------10------3------7------5------|-1010101012121212-|
D|-7--------5------10------10------3------7------5------|-1010101012121212-|
A|-5-(x16)--3-(x8)-8--(x4)-7--(x4)-1-(x8)-5-(x8)-3-(x8)-|-8-8-8-8-10101010-|
D|------------------------------------------------------|------------------|

E|------------------|
B|------------------|
G|-5555555555555555-|
D|-5555555555555555-|
A|-3333333333333333-|
D|------------------|

Final:
E|--------------------------------------|
B|--------------------------------------|
G|--------------1010101012121212-7------|
D|-10--8--7--5--1010101012121212-7------|
A|--------------8-8-8-8-10101010-5------|
D|--------------------------------------|
Página 1 / 1

Letras e título
Acordes e artista

resetar configurações
OK