Cifra Club

A História Da Vida De Cada Um

Autoramas

Cifra: Principal (violão e guitarra)
tom: C#m
[Intro] C#m  B  E
        C#m  B  E
        C#m  B  E
        F#  A  E
        F#  A  E

[Tab - Riff]

E|----------------------------------------------------|
B|----------------------------------------------------|
G|----------------------------------------------------|
D|--------2-0--0---2-0--------------------------------|
A|---------------2-----2-0---0-2----------------------|
E|---0-0-0-----------------4-----4-2-0----------------|

                       C#m     B     E
Me olhar no espelho e não querer me ver
                    C#m     B        E
Esquecer das coisas que só eu sei fazer
               F#            A
Querer me comparar com quem?
                F#             A
Melhor não ser igual a ninguém
              E
Cada um, cada um
                    C#m     B        E
Ser capaz de dar valor ao que eu já tenho
                 C#m      B      E
Da forma que eu sei, de onde eu venho
                F#        A
Poder ter algo pra dizer
                       F#          A
Sobre que o que eu já consegui ver
              E (Riff)
Cada um, cada um

        C#m             B        F#
Nem me elogiar, nem me condenar

Apenas poder dizer sou eu
    C#m                     B         F#
Nem me enganar há um preço pra pagar

E se for mesmo assim, valeu

[Refrão]

A              E 
  Eu só queria conhecer
A                     E
A história da vida de cada um
A                 E            F#  A
  E a minha eu também poder contar

[Intro] C#m  B  E
        C#m  B  E
        C#m  B  E
        F#  A  E
        F#  A  E

              C#m     B       E
Não quero festejar a sua derrota
                 C#m      B        E
O que eu posso ganhar é o que me importa
               F#           A
Querer me comparar com quem?
                F#            A
Melhor não ser igual a ninguém
              E (Riff)
Cada um, cada um

       C#m              B        F#
Nem me elogiar, nem me condenar
F#
Apenas poder dizer sou eu
    C#m                     B         F#
Nem me enganar há um preço pra pagar
F#
E se for mesmo assim, valeu

[Refrão]

A              E 
  Eu só queria conhecer
A                     E
A história da vida de cada um
A                 E            F#  A
  E a minha eu também poder contar

[Solo]

E|----------------------------------------------------|
B|--9--9-9-7--7----9-7-------7-----9--9-9-7-----------|
G|--------------9------9-8-9---9------------9-8-9-----|
D|----------------------------------------------------|
A|----------------------------------------------------|
E|----------------------------------------------------|

E|----------------------------------------------------|
B|-7-9-7-------7-9--7-------7---9-7-------7----9--9-7-|
G|------9-8-9--------9-8-9---9-----9-8-9---9----------|
D|----------------------------------------------------|
A|----------------------------------------------------|
E|----------------------------------------------------|

E|----------------------------------------------------|
B|----------------------------------------------------|
G|-9--6-4b-4-2-4-6-4----------------------------------|
D|----------------------------------------------------|
A|----------------------------------------------------|
E|----------------------------------------------------|

[Refrão]

A              E 
  Eu só queria conhecer
A                     E
A história da vida de cada um
A                 E            F#  A
  E a minha eu também poder contar


[Final] C#m  B  A  C#m
00:00 / 00:00
Outros vídeos desta música
Repetir
Outros vídeos desta música
Composição de Gabriel Thomaz
Colaboração e revisão:
  • Ewerton Barbosa
  • Tiago
7.090 exibições
    • ½ Tom
    • Am
    • Bbm
    • Bm
    • Cm
    • C#m
    • Dm
    • Ebm
    • Em
    • Fm
    • F#m
    • Gm
    • G#m
  • Adicionar à lista

    0 comentários

    Ver todos os comentários

    Entre para oCifra Club PRO

    Tenha acesso a benefícios exclusivos no App e no Site

    • Chega de anúncios

    • Prioridade de compra em lançamentos

    • Mais recursos no app do Afinador

    • Atendimento Prioritário

    • Descontos nos produtos Cifra Club

    • Ajude a produzir mais conteúdo

    00:00 / 00:00

    Cifra Club Pro

    Aproveite o Cifra Club com benefícios exclusivos e sem anúncios
    Cifra Club Pro
    Aproveite o Cifra Club com benefícios exclusivos e sem anúncios
    OK