Cifra Club

Serpents In Paradise

Avantasia

Cifra: Principal (violão e guitarra)
tom: C
Tune down 1/2 step!  

                              Riff 1 (Gtr.1)
E---------------------------|-------------------------------------------------------|
B---------------------------|---7p0-8p0-10p0-8p0-7p0-5p0-7p0-8p0-10p0-8p0-7p0-5p0---|
G---2~---2-2~---2~---2~-----|*----------------------------------------------------\-|
D---2~---2-2~---2~---2~-----|*------------------------------------------------------|
A---0~---0-0~---0~---0~-x\--|-------------------------------------------------------|
E---------------------------|-------------------------------------------------------|
                            | Riff 1 (Gtr.2)                                        |
                           E|-------------------------------------------------------|
                           B|---3p0-5p0--7p0-5p0-3p0-2p0-3p0-5p0--7p0-5p0-3p0-2p0---|
                           G|*----------------------------------------------------\-|
                           D|*------------------------------------------------------|
                           A|-------------------------------------------------------|
                           E|-------------------------------------------------------|

E---------------------------------------------------/-3p0-5p0-7p0-5p0-3p0-2p0-3p0-5p|
B-----------------------------------------------------------------------------------|
G-7p0-9p0-11p0-9p0-7p0-6p0-7p0-9p0-11p0-9p0-7p0-6p0---------------------------------|
D-----------------------------------------------------------------------------------|
A-----------------------------------------------------------------------------------|
E-----------------------------------------------------------------------------------|
                                                                                    |
E---------------------------------------------------------2p0-3p0-2p0-------------2p|
B---------------------------------------------------/-5p0-------------5p0-3p0-5p0---|
G-4p0-6p0--7p0-6p0-4p0-2p0-4p0-6p0--7p0-6p0-4p0-2p0---------------------------------|
D-----------------------------------------------------------------------------------|
A-----------------------------------------------------------------------------------|
E-----------------------------------------------------------------------------------|
                                                        ___________ _______________
                                                       |1.         |2.             |
E0-7p0-5p0-3p0-2p0-------------------------------------|-----------|---------------||
B-------------------------------5-5-5-7-7-7/8~-7h8p7p5-|-7~-5------|-7~-5----------||
G------------------\6-6-6-7-7-7------------------------|------6~--*|------6-6/7~~--||
D------------------------------------------------------|----------*|---------------||
A------------------------------------------------------|-----------|---------------||
E------------------------------------------------------|-----------|---------------||
                   pm......................|           |           |               ||
E0-3p0-2p0---------------------------------------------|-----------|---------------||
B----------5p0-3p0--------------2-2-2-3-3-3/5~-3h5p3p2-|-3~-2------|-3~-2----------||
G------------------\2-2-2-4-4-4------------------------|------2---*|------2-2/4~---||
D------------------------------------------------------|----------*|---------------||
A------------------------------------------------------|-----------|---------------||
E------------------------------------------------------|-----------|---------------||
                   pm......................|
  Riff 1 (Gtr.3)
E-----------------------------------------------------------------------------------|
B-----------------------------------------------------------------------------------|
G*----------------------------------------------------------------------------------|
D*----------------------------------------------------------------------------------|
A---2-2-2-2-2-2-2-2-2-2-2-2-2-2-2-2-2-2-2-2-2-2-2-2---------------------------------|
E---------------------------------------------------\3-3-3-3-3-3-3-3-3-3-3-3-3-3-3-3|
  pm................................................................................

E-----------------------------------------------------------------------------------|
B-----------------------------------------------------------------------------------|
G-----------------------------------------------------------------------------------|
D-----------------------------------------------------------------------------------|
A------------------------------------------------------------------/0-0-0-0-0-0-0-0-|
E-3-3-3-3-3-3-3-3-\0-0-0-0-0-0-0-0-0-0-0-0-0-0-0-0-0-0-0-0-0-0-0-0------------------|
 ...................................................................................

                    (end Riff 1) x2
E-----------------------------------------------------------------------------------|
B-----------------------------------|-----------------------------------------------|
G----------------------------------*|-----------------------------------------------|
D----------------------------------*|-----------------------------------------------|
A-0-0-0-0-0-0-0-0-0-0-0-0-0-0-0-0---|-----------------------------------------------|
E--------------------------------------\3--3-3-3--3--3--3--3--3-3-3--3--3--3--3--3-3|
 ................................|    pm........|         pm.......|         pm.....

                (end Intro)    Verse 1
E---------------------------||------------------------------------------------------|
B---------------------------||------------------------------------------------------|
G---------------------------||*-----------------------------------------------------|
D---------------------------||*-----------------------------------------------------|
A-------------5--5--5--5\---||---2--2-2-2-2--2-2-2-2--2-2-2-2--2-2-4p2p0------------|
E-3--3--3--3--3--3--3--3\---||-------------------------------------------\2--2-2-2-2|
 ..|         pm.........|       pm................................|     pm..........

E-----------------------------------------------------------------------------------|
B-----------------------------------------------------------------------------------|
G-----------------------------------------------------------------------------------|
D-----------------------------------------------------------------------------------|
A-----------------------------------------------------------------------------------|
E--2-2-2-2--2-2-2-2--2-2-3p2p0--0--0-0-0-0--0-0-0-0--0-0-0-0--0-0-3p2p0--0--0-0-0-0-|
 .......................|      pm................................|      pm..........
                          _________ ________
                         |1.       |2.      |  Bridge
E------------------------|---------|--------||--------------------------------------|
B------------------------|---------|--------||--------------------------------------|
G------------------------|--------*|--------||----------------------------/--2------|
D------------------------|--------*|--------||------------5~-----------5~-/--2------|
A------------------------|---------|--------||------------5~-----------5~-/--0--2-2-|
E--0-0-0-0--0-0-0-0--0-0-|-3p2p0---|-3-3-3--||---3--3-3-3-3~--3--3-3-3-3~-----------|
 .......................|           pm....|     pm.......|   pm.......|        pm...

E-----------------------------------------------------------------------------------|
B-----------------------------------------------------------------------------------|
G-----------------------------------------------------------------------------------|
D---------------------2-2-2--------------------------------------------4-4-4\2-2-2--|
A-2-5-5-5\4-4-4/5-5-5-------5-5-5-4-4-4\0-0-0--2-2-2-5-5-5\4-4-4/5-5-5-------------5|
E-----------------------------------------------------------------------------------|
 ...................................................................................

                                                                      Chorus
E-----------------------------------------------------------------------------------|
B-------------------------------------------------------------------|---------------|
G------------------------------------7~------------9~--\-2---3-/-5--|---------------|
D----------------------5~------------7~------------9~--\-2---3-/-5--|---3----8-\-5--|
A-5-5\4-4-4------------5~---5--5-5-5-5~---7--7-7-7-7~--\-0---1-/-3--|---3----8-\-5--|
E------------\3--3-3-3-3~-----------------------------------------------1----6-\-3--|
 .....................|    pm.......|    pm.......|

E-----------------------------------------------------------------------------------|
B-----------------------------------------------------------------------------------|
G-----------------------------------------------------------------------------------|
D--------------------------/5-5-5\3-3-3\2-2-2---------------------------------------|
A--3-3-3-3-3-3-3-3-3-3-3-3--------------------3-3-3---5-5-5-5-5-5-5-5-5-5-5-5-\3-3-3|
E-----------------------------------------------------------------------------------|
  pm...............................................|   pm....................|  pm..

E-----------------------------------------------------------------------------------|
B-----------------------------------------------------------------------------------|
G----------------------------------------------3---------/-5------------------------|
D----------------------------------------------3---------/-5----------3----8-\-5----|
A-3-3-3-3-3-3-3-3-3-\0-0-0-0-0-0-0-0-0-0-0-0---1--1-1-1--/-3--3-3-3---3----8-\-5--/3|
E---------------------------------------------------------------------1----6-\-3----|
 ..................|  pm.....................|   pm....|     pm....|             pm.

E-----------------------------------------------------------------------------------|
B-----------------------------------------------------------------------------------|
G-----------------------------------------------------------------------------------|
D-----------------------------------------------/5-5-5-5-5-5-5-5-5-5-5-5\3-3-3-3-3-3|
A-3-3-3-3-3-3-3-3-3-3-3-3-3-3-3-3-3-3-3-3-3-3-3-------------------------------------|
E-----------------------------------------------------------------------------------|
 ..............................................|  pm....................| pm........

                                                                            Guitar 1
E-------------------------------------------------------------------------|---------|
B---------------------------------------------------------------------*---|---7p0-8p|
G----------------------------------------------------------------7~---9\--|*--------|
D-3-3-3-3-3-3-3\1-1-1-1-1-1-1-1-1-1-1-1/3-3-3-3-3-3-3-3-3-3-3-3--5~---7\--|*--------|
A---------------------------------------------------------------------*---|---------|
E-------------------------------------------------------------------------|---------|
  .............| pm....................| pm....................|          | Guitar 2|
                                                                         E|---------|
              *=During first chorus only                                 B|---3p0-5p|
                                                                         G|*--------|
                                                                         D|*--------|
                                                                         A|---------|
                                                                         E|---------|
                                                                          | Guitar 3|
                                                                         E|---------|
                                                                         B|---------|
                                                                         G|*--------|
                                                                         D|*--------|
                                                                         A|---2-2-2-|
                                                                         E|---------|
                                                                             pm....|

E-----------------------------------------------------------------------------------|
B0-10p0-8p0-7p0-5p0-7p0-8p0-10p0-8p0-7p0-5p0----------------------------------------|
G--------------------------------------------\7p0-9p0-11p0-9p0-7p0-6p0-7p0-9p0-11p0-|
D-----------------------------------------------------------------------------------|
A-----------------------------------------------------------------------------------|
E-----------------------------------------------------------------------------------|

E-----------------------------------------------------------------------------------|
B0--7p0-5p0-3p0-2p0-3p0-5p0--7p0-5p0-3p0-2p0----------------------------------------|
G--------------------------------------------\4p0-6p0--7p0-6p0-4p0-2p0-4p0-6p0--7p0-|
D-----------------------------------------------------------------------------------|
A-----------------------------------------------------------------------------------|
E-----------------------------------------------------------------------------------|

E-----------------------------------------------------------------------------------|
B-----------------------------------------------------------------------------------|
G-----------------------------------------------------------------------------------|
D-----------------------------------------------------------------------------------|
A-2-2-2-2-2-2-2-2-2-2-2-2-2-2-2-2-2-2-2-2-2-----------------------------------------|
E-------------------------------------------\3-3-3-3-3-3-3-3-3-3-3-3-3-3-3-3-3-3-3-3|
 ...................................................................................
                                                                ____________________
                                                               |1.
E-------------/3p0-5p0-7p0-5p0-3p0-2p0-3p0-5p0-7p0-5p0-3p0-2p0-|--------------------|
B--------------------------------------------------------------|-------------5-5-5/7|
G-9p0-7p0-6p0--------------------------------------------------|-6-6-6/7-7-7--------|
D--------------------------------------------------------------|--------------------|
A--------------------------------------------------------------|--------------------|
E--------------------------------------------------------------|--------------------|
                                                               | pm.................|
E------------------2p0-3p0-2p0-------------2p0-3p0-2p0---------|--------------------|
B-------------/5p0-------------5p0-3p0-5p0-------------5p0-3p0-|-------------2-2-2/3|
G-6p0-4p0-2p0--------------------------------------------------|-2-2-2/4-4-4--------|
D--------------------------------------------------------------|--------------------|
A--------------------------------------------------------------|--------------------|
E--------------------------------------------------------------|--------------------|
                                                               | pm.................|
E--------------------------------------------------------------|--------------------|
B--------------------------------------------------------------|--------------------|
G--------------------------------------------------------------|--------------------|
D--------------------------------------------------------------|--------------------|
A--------------------------------------------------------------|-/-000-000-000-000--|
E--3-3-3-3-\-0-0-0-0-0-0-0-0-0-0-0-0-0-0-0-0-0-0-0-0-0-0-0-0---|--------------------|
 ...........................................................|     pm................
 _________________________ ________________________________________________________
                          |2.                                                      |
E-------------------------|--------------------------------------------------------||
B-7-7-8~-7h8p7p5-7~-5-----|--------------5-5-5/7-7-7/8-8-8\7-7-7\5-5-5-------------||
G---------------------6--*|--6-6-6/7-7-7-------------------------------6-6-6/7~--\-||
D------------------------*|--------------------------------------------------------||
A-------------------------|--------------------------------------------------------||
E-------------------------|--------------------------------------------------------||
                          | pm..............................................|      ||
E-------------------------|--------------------------------------------------------||
B-3-3-5~-3h5p3p2-3~-2-----|--------------2-2-2/3-3-3/5-5-5\3-3-3\2-2-2-------------||
G---------------------2--*|--2-2-2/4-4-4-------------------------------2-2-2/3~--\-||
D------------------------*|--------------------------------------------------------||
A-------------------------|--------------------------------------------------------||
E-------------------------|--------------------------------------------------------||
                          | pm..............................................|      ||
E-------------------------|--------------------------------------------------------||
B-------------------------|--------------------------------------------------------||
G------------------------*|--------------------------------------------------------||
D------------------------*|--------------------------------------------------------||
A--000--000--000--000-----|--0-0-0/2-2-2/3-3-3/5-5-5/7-7-7\5-5-5\3-3-3\0-0-0-------||
E-------------------------|--------------------------------------------------------||
 ....................|      pm..............................................|

                                          Interlude
E-----------------------------------------------------------------------------------|
B-------------|------------|------------|-------5---3---------------------------5---|
G---Verse-2---|---Bridge---|---Chorus---|*------------5-----4-----2-----0h2---------|
D-------------|------------|------------|*--2-2---2-----2-2---2-2---2-2-----2-2---2-|
A-------------|------------|------------|-------------------------------------------|
E-----------------------------------------------------------------------------------|
                                           pm..| pm    pm..| pm..| pm..|   pm..| pm

E-----------------------------------------------------------------------------------|
B-3---------------------------------------------------------------5---3-------------|
G---5-----4-----2-----0h2-------7---5-----------------------------------5-----4-----|
D-----2-2---2-2---2-2-----------------9-----7-----5-----5h7--/2-2---2-----2-2---2-2-|
A--------------------------\5-5---5-----5-5---5-5---5-5-----------------------------|
E-----------------------------------------------------------------------------------|
     pm..| pm..| pm..|     pm..| pm    pm..| pm..| pm..|     pm..| pm    pm..| pm..|

E-----------------------------------------------------------------------------------|
B----------------5---3---------------------------5---3------------------------------|
G-2--------------------5-----4-----2-----0h2-----------5-----4-----2-----0h2------7-|
D---2-2-/5-4-2-2---2-----2-2---2-2---2-2-----2-2---2-----2-2---2-2---2-2------------|
A----------------------------------------------------------------------------\5-5---|
E-----------------------------------------------------------------------------------|
   pm...........| pm    pm..| pm..| pm..|   pm..| pm    pm..| pm..| pm..|    pm..|
                             ____________________________________ _________________
                            |1.2.3.                              |4.               |
E---------------------------|------------------------------------|-----------------||
B---------------------------|------5---3-------------------------|-----------------||
G---5-----------------------|------------5-----5-4-2-4-2--------*|--9~-------------||
D-----9-----7-----5-----5h7-|-/2-2---2-----2-2-----------5-4-5--*|--9~--x\---2~~---||
A-5-----5-5---5-5---5-5-----|------------------------------------|--7~--x\---2~~x\-||
E---------------------------|------------------------------------|-----------0~~x\-||
 pm    pm..| pm..| pm..|      pm..| pm   pm...................|

  Guitar Solo (Henjo)
E--------------------------/-12~-----------------------------------/-10~------------|
B--13~--15-15b(17)--r15-13-/-12~-12------12--12--13-13b(15)-r13-12-------10------10-|
G--14~--16-16b(18)--r16-14-------12-12~--12--12--14-14b(16)-r14-12-/-14-----11~-----|
D-----------------------------------14~----------------------------------16------10-|
A---------------------------------------------------------------------------17~-----|
E-----------------------------------------------------------------------------------|

                                                                         Guitar 1
E-------------------/8~---------------------------------------15h19~~--|------------|
B-10--11-13~-11-10-----------------------------------------15-15h20~~--|-/-10~------|
G------------------------10-9~--7b(9)-r7-5-7~-----------16-16----------|------------|
D-10--12-14~-12-10-\-9~---7-5~--4b(5)-r4-2-4------12h17-17-------------|------------|
A---------------------------------------------\14-14h17----------------|------------|
E---------------------------------------------\15----------------------|------------|
                                                                       | Guitar 2   |
                                                                      E|--20p17-----|
                                                                      B|--------17--|
                                                                      G|------------|
                                                                      D|------------|
                                                                      A|------------|
                                                                      E|------------|

E-----------------------------------------------------------------------------------|
B--------------------12-------13~--------------/15~-----13---------12~--------------|
G-----------------------------------------------------------------------------------|
D-----------------------------------------------------------------------------------|
A-----------------------------------------------------------------------------------|
E-----------------------------------------------------------------------------------|
                                                                                    |
E-20p17----20p17----20p17----20p17----20p17----20p17----20p17----/19p15----19p15----|
B-------17-------17-------17-------17-------17-------17-------17--------17-------17-|
G-----------------------------------------------------------------------------------|
D-----------------------------------------------------------------------------------|
A-----------------------------------------------------------------------------------|
E-----------------------------------------------------------------------------------|

E-----------------------------------------------------------------------------------|
B-----------------------------------------------------------------------------------|
G-----------12------------------------------------------/-12~--------------12-------|
D--------------------14~------------------------------------------------------------|
A-----------------------------------------------------------------------------------|
E-----------------------------------------------------------------------------------|
                                                                                    |
E-19p15----19p15----19p15----20p15----19p15----19p15----/19p15----19p15----19p15----|
B-------17-------17-------17-------17-------17-------17--------15-------15-------15-|
G-----------------------------------------------------------------------------------|
D-----------------------------------------------------------------------------------|
A-----------------------------------------------------------------------------------|
E-----------------------------------------------------------------------------------|

E-----------------------------------------------------------------------------------|
B----------------------------/13------12-------10~----------------------------------|
G---14-----16~------------------------------------------------------------\11-------|
D-----------------------------------------------------------------------------------|
A-----------------------------------------------------------------------------------|
E-----------------------------------------------------------------------------------|
                                                                                    |
E-19p15----19p15----19p15----19p15----19p15----/17p14----17p14----17p14----17p14----|
B-------15-------15-------15-------15-------15--------15-------15-------15-------15-|
G-----------------------------------------------------------------------------------|
D-----------------------------------------------------------------------------------|
A-----------------------------------------------------------------------------------|
E-----------------------------------------------------------------------------------|

E-----------------------------------------------------------------------------------|
B-----------------------------------------------------------------------------------|
G-------------------------------------/10~---------------10-------12-------14-------|
D-12~-------------------------------------------------------------------------------|
A-----------------------------------------------------------------------------------|
E-----------------------------------------------------------------------------------|
                                                                                    |
E-17p14----19p14----17p14----17p14----/17p13----17p13----17p13----17p13----17p13----|
B-------15-------15-------15-------15--------15-------15-------15-------15-------15-|
G-----------------------------------------------------------------------------------|
D-----------------------------------------------------------------------------------|
A-----------------------------------------------------------------------------------|
E-----------------------------------------------------------------------------------|

E-----------------------------------------------------------------------------------|
B-----------------------------------------------------------------------------------|
G----------15-------14--------14~-----------------------\9--------------------------|
D-----------------------------------------------------------------10~---------------|
A-----------------------------------------------------------------------------------|
E-----------------------------------------------------------------------------------|
                                                                                    |
E-17p13----17p13----17p13----/15p12----15p12----15p12----15p12----15p12----17p12----|
B-------15-------15-------15--------13-------13-------13-------13-------13-------13-|
G-----------------------------------------------------------------------------------|
D-----------------------------------------------------------------------------------|
A-----------------------------------------------------------------------------------|
E-----------------------------------------------------------------------------------|

E-----------------------------------------------------------------------------------|
B------------------/-13~---------------12-------10-------12~------------------------|
G-----------------------------------------------------------------------------------|
D-----------------------------------------------------------------------------------|
A-----------------------------------------------------------------------------------|
E-----------------------------------------------------------------------------------|
                                                                                    |
E-15p12----15p12----/15p10----15p10----15p10----15p10----15p10----15p10----15p10----|
B-------13-------13--------12-------12-------12-------12-------12-------12-------12-|
G-----------------------------------------------------------------------------------|
D-----------------------------------------------------------------------------------|
A-----------------------------------------------------------------------------------|
E-----------------------------------------------------------------------------------|

                                                                     Chorus (2)
E-15p10-----22\19p15----------------|-----------------------------------------------|
B-------12-----------15-------------|------------------------------|----------------|
G-----------------------16----------|---2~---2-2~---2~---3--/--5---|----------------|
D--------------------------17-------|---2~---2-2~---2~---3--/--5---|--3----8-\-5----|
A-----------------------------17~~--|---0~---0-0~---0~---1--/--3---|--3----8-\-5--/3|
E-----------------------------------|---------------------------------1----6-\-3----|
                                    |                                             pm
E-----------19p15-------------------||
B-----------------15----------------||
G--------------------16-------------|| end
D-----------------------17----------||
A--------------------------17p14~~--||
E-----------------------------------||

E-----------------------------------------------------------------------------------|
B-----------------------------------------------------------------------------------|
G-----------------------------------------------------------------------------------|
D-----------------------/5-5-5\3-3-3\2-2-2------------------------------------------|
A-3-3-3-3-3-3-3-3-3-3-3--------------------3-3-3--5-5-5-5-5-5-5-5-5-5-5-5-\3-3-3-3-3|
E-----------------------------------------------------------------------------------|
 ...............................................|  pm....................|  pm......

E-----------------------------------------------------------------------------------|
B-----------------------------------------------------------------------------------|
G-----------------------------------------------------------------------------------|
D-------------------------------------------------------------3----8-\-5------------|
A-3-3-3-3-3-3-3\0-0-0-0-0-0-0-0-0-0-0-0--1--1-1-1-/3--3-3-3---3----8-\-5--/3-3-3-3-3|
E-------------------------------------------------------------1----6-\-3------------|
 ..............| pm....................|   pm....|   pm....|              pm........

E-----------------------------------------------------------------------------------|
B-----------------------------------------------------------------------------------|
G----------------------------------------------5-5-\3-3-----------------2-2-2-------|
D---------------------------------------/5-5-5----------7-7\5-5---3-3-3-------5-5-5-|
A-3-3-3-3-3-3-3-3-3-3-3-3-3-3-3-3-3-3-3---------------------------------------------|
E-----------------------------------------------------------------------------------|
 ...................................................................................

E-----------------------------------------------------------------------------------|
B-----------------------------------------------------------------------------------|
G----------------------------------3--/--5------------------------------------------|
D-3-3-3--1-1-1/5-5-5\3-3-3\1-1-1---3--/--5----3----8-\-5---------------------------/|
A----------------------------------1--/--3----3----8-\-5--/3-3-3-3-3-3-3-3-3-3-3-3--|
E---------------------------------------------1----6-\-3----------------------------|
 ...............................|                         pm......................|

E-----------------------------------------------------------------------------------|
B-----------------------------------------------------------------------------------|
G-----------------------------------------------------------------------------------|
D5-5-5\3-3-3\2-2-2------------------------------------------------------------------|
A------------------3-3-3--5-5-5-5-5-5-5-5-5-5-5-5\3-3-3-3-3-3-3-3-3-3-3-3-\0-0-0-0-0|
E-----------------------------------------------------------------------------------|
 pm.....................|  pm....................| pm....................|  pm......

E-----------------------------------------------------------------------------------|
B-----------------------------------------------------------------------------------|
G-----------------------------------------------------------------------------------|
D------------------------3----8-\-5-------------------------------------------------|
A-0-0-0-0-0-0-0--1~-3~---3----8-\-5--/3-3-3-3-3-3-3-3-3-3-3-3-3-3-3-3-3-3-3-3-3-3-3-|
E------------------------1----6-\-3-------------------------------------------------|
 ..............|                     pm.............................................

E-------------------------------------------------||
B-------------------------------------------------||
G---------------8---/--10-------------------------|| end
D-----5----3----8---/--10---5-------5~~------5\---||
A-3---5----3----6---/--8----5-------5~~------5\---||
E-----3----1----6---/--8----3--3-3--3~~------3\---||
 ..|                          pm..|


-----------------------------------------------------------------------------------------

  Rhythm Guitar during Guitar Solo
E-----------------------------------------------------------------------------------|
B-----------------------------------------------------------------------------------|
G-----------------------------------------------------------------------------------|
D-----------------------------------------------------------------------------------|
A--7-------7-------------------------------2-------2-------------------------------5|
E--5-5-5-5-5-5-5-5-5-5-5-5-5-5-5-5-5-5-5-5-0-0-0-0-0-0-0-0-0-0-0-0-0-0-0-0-0-0-0-0-3|
    pm....| pm............................| pm....| pm............................|

E-----------------------------------------------------------------------------------|
B-----------------------------------------------------------------------------------|
G-----------------------------------------------------------------------------------|
D---------------------------------------7-------7-------------------------------7---|
A-------5-------------------------------5-5-5-5-5-5-5-5-5-5-5-5-5-5-5-5-5-5-5-5-5-5-|
E-3-3-3-3-3-3-3-3-3-3-3-3-3-3-3-3-3-3-3---------------------------------------------|
 pm....| pm............................| pm....| pm............................| pm.

E-----------------------------------------------------------------------------------|
B-----------------------------------------------------------------------------------|
G-----------------------------------------------------------------------------------|
D---7-------------------------------------------------------------------------------|
A-5-5-5-5-5-5-5-5-5-5-5-5-5-5-5-5-5-5-7-------7----------------------------------5--|
E-------------------------------------5-5-5-5-5-5-5-5-5-5-5-5-5-5-5-5-5-5-5-5-5--3-3|
 ..| pm..............................| pm....| pm..............................|  pm

E-----------------------------------------------------------------------------------|
B-----------------------------------------------------------------------------------|
G-----------------------------------------------------------------------------------|
D-----------------------------------------------------------------------------------|
A-----5-------------------------------5-------5-------------------------------------|
E-3-3-3-3-3-3-3-3-3-3-3-3-3-3-3-3-3-3-3-3-3-3-3-3-3-3-3-3-3-3-3-3-3-3-3-3-3-3-3-/-5-|
 ....| pm............................| pm....| pm...................................
                                                                              
E-----------------------------------------------------------------------------------|
B-----------------------------------------------------------------------------------|
G-----------------------------------------------------------------------------------|
D-----------------------------------------------------------------------------------|
A-----------------------------------------------------------------------------------|
E-5-5-5-5-5-5-5-5-5-5-5-5-5-5-5-5-5-5-5-0-0-0-0-0-0-0-0-0-0-0-0-0-0-0-0-0-0-0-0-3-3-|
 ...................................................................................

E-----------------------------------------------------------------------------------|
B-----------------------------------------------------------------------------------|
G-----------------------------------------------------------------------------------|
D-----------------------------------------------------------------------------------|
A-------------------------------------5-5-5-5-5-5-5-5-5-5-5-5-5-5-5-5-5-5-5-5-5-5-5-|
E-3-3-3-3-3-3-3-3-3-3-3-3-3-3-3-3-3-3-----------------------------------------------|
 ...................................................................................

E-----------------------------------------------------------------------------------|
B-----------------------------------------------------------------------------------|
G-----------------------------------------------------------------------------------|
D-----------------------------------------------------------------------------------|
A-5-5-5-5-5-5-5-5-5-5-5-5-5-5-5-5-5-5-5---------------------------------------------|
E---------------------------------------5-5-5-5-5-5-5-5-5-5-5-5-5-5-5-5-5-5-5-5-5\3-|
 ...................................................................................

E-----------------------------------------------------------------------------------||
B-----------------------------------------------------------------------------------||
G-----------------------------------------------------------------------------------|| end
D-----------------------------------------------------------------------------------||
A-----------------------------------------------------------------------------------||
E-3-3-3-3-3-3-3-3-3-3-3-3-3-3-3-3-3-3-3-3-3-3-3-3-3-3-3-3-3-3-3-3-3-3-3-3-3-3-3-3-3-||
 ..................................................................................|

-----------------------------------------------------------------------------------------

=======================
=TABLATURE EXPLANATION=
=======================

A.H. = Artificial Harmonic

pm..| = Palm mute

h = hammer on

p = pull off

/ = slide up

\ = slide down

~ = Vibrato

b() = Bend

x\ = Pick Slide

--------
--------
---12--- = Tremolo pick
----/---
----/---
----/---

---.---
--12--- = Staccato
-------
-------
-------

|     |
|     |
|*   *| = repeat from * to *
|*   *| 
|     |

LYRICS:
***********************************************************************

[Gabriel]
Reading the madness they took her away
under the cross.
Bailiff and bishop and monk -
Malleus Maleficarum - the law

Prayed for salvetion, I fought for her soul -
scared by the horned.
The devil was creeping around
until she died in the flames as he saw.

Father forgive me for I've hardly seen
the human deep within. Just an intention -
so holy and clear - paving the way to madness
for us...

Serpents on the way to paradise -
dying for love, fighting for ages.
Serpents on their way to paradise -
raging with anger and pain for the cross.

[Jakob]
Father forgive me for what I have done.
For I betrayed the one that I loved like a son.
Demons and spells are they reality?

The pest and the schism; the power of the Moor
We've got to fight. Keep our people afraid...
Keep them away from what they shall not see.

I see a menace to our paradise
in these evil times.
Heaves is burning, people are yearning
for a new doctrine, they are...

[Gabriel]
Serpents on the way paradise.

[Jakob]
Don't know they'll end in final damnation.

[Gabriel]
Serpents on the way to paradise...

[Jakob]
Raging with anger and pain against the cross.

[Gabriel]
Lord if I'm an unbeliever - what do I believe?
Can you tell me lord what you had done
if you were me?
I have stared into the eyes
of innocence and fear.
I saw Anna in the tower in a lake of tears.
Something strange is going on and
still I don't know why.
I have stared into the secrets
they still try to hide.

Vandroiy can you tell me what you know about it all?
Vandroiy can you help me
to leave this prison hall?
Vandroiy can you help me
free Anna from the chain?
Vandroiy can you help me
to become a little sane?

Serpents on the way to paradise -
Dying for love, fighting for ages.
Serpents on their way to paradise
Raging with anger and pain...

Serpents on the way to paradise -
Dying for love, fighting for ages.
Serpents on their way to paradise
Raging with anger and pain...
Composição de Tobias Sammet
Colaboração e revisão:
  • Marcio Zavanella
5.850 exibições
    • ½ Tom
    • A
    • Bb
    • B
    • C
    • Db
    • D
    • Eb
    • E
    • F
    • F#
    • G
    • Ab
  • Adicionar à lista

    0 comentários

    Ver todos os comentários

    Conseguiu tocar?

    0 Tocaram 0 Ainda não

    Grave um vídeo tocando Serpents In Paradise e nos envie!

    00:00 / 00:00
    Outros vídeos desta música
    Repetir Qualidade Automático
    Outros vídeos desta música
    00:00 / 00:00
    Automático

    Cifra Club Pro

    Aproveite o Cifra Club com benefícios exclusivos e sem anúncios
    Cifra Club Pro
    Aproveite o Cifra Club com benefícios exclusivos e sem anúncios
    OK