Cifra Club

Crimson Day

Avenged Sevenfold

Cifra: Principal (violão e guitarra)
tom: G
KEY: G

INTRO:
             Em                     D/F#                   G
E|----------------------|----------------------|----------------------|
B|----------------------|------------3---------|------------3---------|
G|------------0---------|-------2---------2----|-------0---------0----|
D|-------2---------2----|--4-------------------|----------------------|
A|----------------------|----------------------|----------------------|
E|--0-------------------|----------------------|--3-------------------|

                C                        Am                       A4
E|------------0-----------|------------0-----------|------------0-----------|
B|---------------1--------|---------------1--------|---------------3--------|
G|-------0----------0-----|-------2----------2-----|-------2----------2-----|
D|---------------------2--|---------------------2--|--0------------------0--|
A|--3---------------------|--0---------------------|------------------------|
E|------------------------|------------------------|------------------------|

              Em9
E|----------------------------0----------------|
B|--------------0--------0---------------------|
G|-----------0-----0---------------------------|
D|--------4-----------4------------------------|
A|-----2---------------------------------------|
E|--0------------------------------------------|

*guitarra limpa*
Em   D/F# G               C
Dark year brought endless rain,
Am         D              Em
out in the cold I lost my way,
Em         D/F#                    G                  C
but storms won't last to clear the air, for something new,
    Am       D                     Em
the sun came out and brought you through,

Am                          Em
a lifetime full of words to say,
D                                      C
I hope that time will slow the passing day.

*guitarra com distorção*
Em D/F# G G/B

C                     G
I've been wrong times over,
C                                     G
and I've been shamed with no words to find,
            D                         Em         D
but if the sun will rise, bring us tomorrow,
C    G/B  Am     Am/G  D
walk with me, crimson day.

(G/C G/B D/A)
(G D/F#)

*guitarra limpa*

Em    D/F#      G        C
Don't speak, no use for words,
Am        D             Em
lie in my arms sleep secure,
Em                  D/F#          G              C
I wonder what you're dreaming of, lands rare and far,
  Am         D                Em
a time must fly to reach the stars,

Am                          Em
a lifetime full of words to say,
D                                      C
I hope that time will slow the passing day.

/*guitarra com distorção*/
Em D/F# G G/B

C                     G
I've been wrong times over,
C                                     G
and I've been shamed with no words to find,
            D                         Em         D
but if the sun will rise, bring us tomorrow,
C    G/B  Am     Am/G  D
walk with me, crimson day.

(G/C G/B D/A)

        SOLO: C Em (x4)
----------------------------------------------------12-14-15-|
-------------------------------------------12-14-15----------|
----------11-12-14-12-11----------12-14-16-------------------|
-------14----------------12-14-16----------------------------|
-------------------------------------------------------------|
-------------------------------------------------------------|

-14b15--14~----------12p10-12/14-15---12~----10 10h12|
-------------------------|---------------------------|
-------------------------|---------------------------|
-------------------------|---------------------------|
-------------------------|---------------------------|
-------------------------|---------------------------|

--12\7--7/10---8--8---7--7-------------------10----10-----10--------------|
---------------------------10--10---8--10b12---b12----b12----r10----------|
-----------------------------------------------------------------9p7-9----|
--------------------------------------------------------------------------|
--------------------------------------------------------------------------|
--------------------------------------------------------------------------|

-----------------------------------------------------------15-17-19-17-15-12~---|
--------------------------------------15-13-12----15-16-17----------------------|
--------------------12-13--12--12/14--------------------------------------------|
----9-10/12--12/14--------------------------------------------------------------|
--------------------------------------------------------------------------------|
--------------------------------------------------------------------------------|

------/12-12---10-10---8-7------------------10-----10-----10---------------|
----------------------------10-10--8--10b12----b12----b12----r10-----------|
------------------------------------------------------------------9p7--9---|
---------------------------------------------------------------------------|
---------------------------------------------------------------------------|
---------------------------------------------------------------------------|

*guitarra limpa*
Am                           Em
I've come so far to meet you here,
    D                                     C
to share this life with the one I hold so dear,
Am                            Em
and I won't speak but what is true,
     D                             C
the world outside created just for you,
     D           C
is for you, for you...
|-----------------------------------------------12-14|
|-----------------------------------------12-15------|
|--------------12-14-12-------------12-14------------|
|--------12-14----------14----12-14------------------|
|--12-15-------------------15------------------------|
|----------------------------------------------------|

--12b14--12b14---10-----10-12-14-15~---------------------------------------|
---------------------------------------------------------------------------|
---------------------------------------------------------------------------|
---------------------------------------------------------------------------|
---------------------------------------------------------------------------|
---------------------------------------------------------------------------|



*guitarra com distorção*
C                     G
I've been wrong times over,
C                                     G
and I've been shamed with no words to find,
            D                         Em         D
but if the sun will rise, bring us tomorrow,
C    G/B  Am     Am/G  D
walk with me, crimson day.

(G/C G/B D/A)
(C G)
00:00 / 00:00
Outros vídeos desta música
Repetir
Outros vídeos desta música
Composição de Brian Haner Jr / Matthew Sanders
41.083 exibições
    • ½ Tom
    • A
    • Bb
    • B
    • C
    • Db
    • D
    • Eb
    • E
    • F
    • F#
    • G
    • Ab
  • Adicionar à lista

    0 comentários

    Ver todos os comentários

    Entre para oCifra Club PRO

    Tenha acesso a benefícios exclusivos no App e no Site

    • Chega de anúncios

    • Prioridade de compra em lançamentos

    • Mais recursos no app do Afinador

    • Atendimento Prioritário

    • Descontos nos produtos Cifra Club

    • Ajude a produzir mais conteúdo

    00:00 / 00:00

    Cifra Club Pro

    Aproveite o Cifra Club com benefícios exclusivos e sem anúncios
    Cifra Club Pro
    Aproveite o Cifra Club com benefícios exclusivos e sem anúncios
    OK