Notificações Amigos pendentes

      Avenged Sevenfold

      Hail To The King

      69.166 exibições
      Tom: B
      *Afinação Cb Gb Cb Fb Ab Db
      
      h = Hammer On
      p = Pull Off
      / = Slide
      . = Palm-Mute
      b = Bend
      r = Release
      ()= Deixar a nota soar
      
       [Intro]
       (Gtr I)
      
      |-12p0----14p0----15p0------14p0------14p0-------------------------|
      |------12------12------12--------12--------12-12-------------------|
      |------------------------------------------------------------------|
      |------------------------------------------------------------------|
      |------------------------------------------------------------------|
      |------------------------------------------------------------------|
      |
      |-12p0------14p0------15p0------14p0------14p0---------------------|
      |------12--------12--------12--------12--------12-12---------------|
      |------------------------------------------------------------------|
      |------------------------------------------------------------------|
      |------------------------------------------------------------------|
      |------------------------------------------------------------------|
      |                                                                   [00:00~00:50]
      |-12p0------14p0------15p0------14p0------14p0---------------------|
      |------12--------12--------12--------12--------12-12---------------|
      |------------------------------------------------------------------|
      |------------------------------------------------------------------|
      |------------------------------------------------------------------|
      |------------------------------------------------------------------|
      |
      |-17p0------17p0------15p0------15p0------14p0---------------------|
      |------15--------15--------15---------15-------15-15---------------|
      |------------------------------------------------------------------|
      |------------------------------------------------------------------|
      |------------------------------------------------------------------|
      |------------------------------------------------------------------|
      |
      |(Gtr II)
      |------------------------------------------------------------------|
      |------------------------------------------------------------------|
      |------------------------------------------------------------------| (4x)
      |------------------------------------------------------------------|
      |--2---4---5---2---2-----------------------------------------------|
      |--2---4---5---2---2-----------------------------------------------|
      |              .   .                                               |
      |------------------------------------------------------------------|
      |------------------------------------------------------------------|
      |------------------------------------------------------------------| (3x)
      |------------------------------------------------------------------|
      |--2---4---5---2---2------2---2------2---2-------------------------|
      |--2---4---5---2---2------2---2------2---2-------------------------|
      |              .   .      .   .      .   .                         |
      |------------------------------------------------------------------|
      |------------------------------------------------------------------|
      |------------------------------------------------------------------|
      |------------------------------------------------------------------|
      |--2---4---5---2--7--7--7--7--7------------------------------------|
      |--2---4---5---2--7--7--7--7--7--5--4--0---------------------------|
      
      
       [Riff I]
       (Gtr I)
      
      |------------------------------------------------------------------|
      |--5h8p5p0--5h8p5p0--5h8p5p0--3h5p3p0------------------------------|
      |------------------------------------------------------------------|
      |------------------------------------------------------------------|
      |------------------------------------------------------------------|
      |------------------------------------------------------------------|
      |
      |------------------------------------------------------------------|
      |--5h8p5p0--5h8p5p0--5h8p5p0--3h5p3p0------------------------------|
      |------------------------------------------------------------------|
      |------------------------------------------------------------------|
      |------------------------------------------------------------------|
      |------------------------------------------------------------------|
      |                                                                  | [00:51~01:08]
      |------------------------------------------------------------------|
      |--5h8p5p0--5h8p5p0--5h8p5p0--3h5p3p0------------------------------|
      |------------------------------------------------------------------|
      |------------------------------------------------------------------|
      |------------------------------------------------------------------|
      |------------------------------------------------------------------|
      |                                                                  |
      |------------------------------------------------------------------|
      |--3h5p3p0--3h5p3p0--3h5p3p0--3h5p3p0------------------------------|
      |------------------------------------------------------------------|
      |------------------------------------------------------------------|
      |------------------------------------------------------------------|
      |------------------------------------------------------------------|
      |                                                                  |
      |(Gtr II)                                                          |
      |------------------------------------------------------------------|
      |------------------------------------------------------------------|
      |------------------------------------------------------------------|
      |------------------------------------------------------------------|
      |--2---------------5---0---2-------5---0---2-------5---0---2-------|
      |--2---------------5---0---2-------5---0---2-------5---0---2-------|
      |                                                                  | (2x)
      |------------------------------------------------------------------|
      |------------------------------------------------------------------|
      |------------------------------------------------------------------|
      |------------------------------------------------------------------|
      |--5---------0-----------------------------------------------------|
      |--5---------0-----5--4--0-----------------------------------------|
      
      
       [Verso]
       (Gtr I)
      
      |------------------------------------------------------------------|
      |--5h8p5p0--5h8p5p0--5h8p5p0--3h5p3p0------------------------------|
      |------------------------------------------------------------------|
      |------------------------------------------------------------------|
      |------------------------------------------------------------------|
      |------------------------------------------------------------------|
      |                                                                  |
      |------------------------------------------------------------------|
      |--5h8p5p0--5h8p5p0--5h8p5p0--3h5p3p0------------------------------|
      |------------------------------------------------------------------|
      |------------------------------------------------------------------|
      |------------------------------------------------------------------|
      |------------------------------------------------------------------|
      |                                                                  | [01:08~01:24]
      |------------------------------------------------------------------|
      |--5h8p5p0--5h8p5p0----8h10p8p0--8h10p8p0--------------------------|
      |------------------------------------------------------------------|
      |------------------------------------------------------------------|
      |------------------------------------------------------------------|
      |------------------------------------------------------------------|
      |                                                                  |
      |------------------------------------------------------------------|
      |--5h8p5p0--5h8p5p0--5h8p5p0--3h5p3p0------------------------------|
      |------------------------------------------------------------------|
      |------------------------------------------------------------------|
      |------------------------------------------------------------------|
      |------------------------------------------------------------------|
      |                                                                  |
      |(Gtr II)                                                          |
      |------------------------------------------------------------------|
      |------------------------------------------------------------------|
      |------------------------------------------------------------------|
      |------------------------------------------------------------------|
      |--2---2---2---2---2---2---2---2---2---2---2---2---5---0-----------|
      |--2---2---2---2---2---2---2---2---2---2---2---2---5---0-----------|
      |      .   .   .   .   .   .   .   .   .   .   .                   | (2x)
      |------------------------------------------------------------------|
      |------------------------------------------------------------------|
      |------------------------------------------------------------------|
      |------------------------------------------------------------------|
      |--2---2---2---2---2---2---2---2---2---2---2---2---0---------------|
      |--2---2---2---2---2---2---2---2---2---2---2---2---0---5--4--0-----|
      
             .   .   .   .   .   .   .   .   .   .   .
      
       [Pre-Refrão]
       (Gtr I)
      
      |--12-8-------12-8-------12-8--------------------------------------|
      |-------10---------10---------10----8-10-8-------------------------|
      |----------9----------9----------9---------9-----------------------|
      |------------------------------------------------------------------|
      |------------------------------------------------------------------|
      |------------------------------------------------------------------|
      |                                                                  | [01:24~01:30]
      |--12-8-----------------12-8---------------------------------------|
      |-------10----8-10-8---------10----8-10-8--------------------------|
      |----------9---------9----------9---------9------------------------|
      |------------------------------------------------------------------|
      |------------------------------------------------------------------|
      |------------------------------------------------------------------|
      |                                                                  |
      |(Gtr II)                                                          |
      |------------------------------------------------------------------|
      |------------------------------------------------------------------|
      |------------------------------------------------------------------| (2x)
      |------------------------------------------------------------------|
      |--7-------10---7-------10---5---7---------------------------------|
      |--7-------10---7-------10---5---7---------------------------------|
      |                                                                  |
      |(Gtr I)                                                           |
      |------------------------------------------------------------------|
      |--12h15p12p0--12h15p12p0--12h15p12p0--10h12p10p0------------------|
      |------------------------------------------------------------------| [01:30~01:38]
      |------------------------------------------------------------------|
      |------------------------------------------------------------------|
      |------------------------------------------------------------------|
      |                                                                  |
      |(Gtr II)                                                          |
      |------------------------------------------------------------------|
      |------------------------------------------------------------------|
      |------------------------------------------------------------------| (2x)
      |------------------------------------------------------------------|
      |--9-------12---9-------12---7---9---------------------------------|
      |--9-------12---9-------12---7---9---------------------------------|
      
      
       [Refrão]
       (Gtr I)
      
      |------------------------------------------------------------------|
      |--8---5---7---8---7---(7)------8---5---7---8---7---(7)------------|
      |------------------------------------------------------------------| [01:39~01:54]
      |------------------------------------------------------------------|
      |------------------------------------------------------------------|
      |------------------------------------------------------------------|
      |                                                                  |
      |(Gtr II)                                                          |
      |------------------------------------------------------------------|
      |------------------------------------------------------------------|
      |------------------------------5-------7---------------------------| (2x)
      |--2-------0-------------------5-------7---------------------------|
      |--2-------0-------------------3-------5---------------------------|
      |--2-------0-----5---4---0-------------------5---4---0-------------|
      
      
      Repetir Tudo [01:55~02:54]
      Repeat Intro [02:54~03:01]
      
      
       [Solo 1]
       (Gtr I)
      
      |------------------------------------------------------------------|
      |--5h8p5p0---5h8p5p0---5h8p5p0----5h8p5p0--------------------------|
      |------------------------------------------------------------------|
      |------------------------------------------------------------------|
      |------------------------------------------------------------------|
      |------------------------------------------------------------------|
      |                                                                  |
      |------------------------------------------------------------------|
      |--7h10p7p0----7h10p7p0----4h7p4p0----4h7p4p0----------------------|
      |------------------------------------------------------------------|
      |------------------------------------------------------------------|
      |------------------------------------------------------------------|
      |------------------------------------------------------------------|
      |                                                                  |
      |------------------------------------------------------------------|
      |--5h8p5p0---5h8p5p0---5h8p5p0----5h8p5p0--------------------------|
      |------------------------------------------------------------------|
      |------------------------------------------------------------------|
      |------------------------------------------------------------------|
      |------------------------------------------------------------------|
      |                                                                  | [03:01~03:16]
      |------------------------------------------------------------------|
      |--7h10p7p0----7h10p7p0----4h7p4p0----4h7p4p0----------------------|
      |------------------------------------------------------------------|
      |------------------------------------------------------------------|
      |------------------------------------------------------------------|
      |------------------------------------------------------------------|
      |                                                                  |
      |------------------------------------------------------------------|
      |--5h8p5p0---5h8p5p0---5h8p5p0----5h8p5p0--------------------------|
      |------------------------------------------------------------------|
      |------------------------------------------------------------------|
      |------------------------------------------------------------------|
      |------------------------------------------------------------------|
      |                                                                  |
      |------------------------------------------------------------------|
      |--10h13p10p0------10h13p10p0-------7h10p7p0-----7h10p7p0----------|
      |------------------------------------------------------------------|
      |------------------------------------------------------------------|
      |------------------------------------------------------------------|
      |------------------------------------------------------------------|
      |                                                                  |
      |------------------------------------------------------------------|
      |--8h12p8p0----8h12p8p0-----7h11p7p0--------7h11p7p0-------12-(12)-|
      |------------------------------------------------------------------|
      |------------------------------------------------------------------|
      |------------------------------------------------------------------|
      |------------------------------------------------------------------|
      |                                                                  |
      |(Gtr II)                                                          |
      |------------------------------------------------------------------|
      |------------------------------------------------------------------|
      |------------------------------------------------------------------|
      |--2-------0-----9-------------2-------0------9--------------------|
      |--2-------0-----9-------------2-------0------9--------------------|
      |--2-------0-----9-------------2-------0------9--------------------|
      |                                                                  |
      |------------------------------------------------------------------|
      |------------------------------------------------------------------|
      |------------------------------------------------------------------|
      |--2-------0-------7-------4------5-------4------9-----------------|
      |--2-------0-------7-------4------5-------4------9-----------------|
      |--2-------0-------7-------4------5-------4------9-----------------|
      
      
       [Solo 2]
       (Gtr I)
      
      |------------------------------------------------------------------|
      |-------------------------5--7/13--13---12--10~-----12--13--10~----|
      |-----------/11---9---8--------------------------------------------|
      |-/9---8h9---------------------------------------------------------|
      |------------------------------------------------------------------|
      |------------------------------------------------------------------|
      |                                                                  |
      |---------11b(12121212)~------11~-----11--12--14--11~--------------|
      |-12--13-----------------------------------------------------------|
      |------------------------------------------------------------------|
      |------------------------------------------------------------------|
      |------------------------------------------------------------------|
      |------------------------------------------------------------------|
      |                                                                  |
      |-12--14--14/20--17--15-----------19--20--17--19--20--17--19~------|
      |------------------------17~---------------------------------------|
      |------------------------------------------------------------------|
      |------------------------------------------------------------------|
      |------------------------------------------------------------------|
      |------------------------------------------------------------------|
      |                                                                  |
      |---------------------------12--14b15-14--12-----------------------|
      |-------------------------12---------------------------------------|
      |--------------9--11--12-------------------------------------------|
      |-----------9------------------------------------------------------|
      |-7--9--10---------------------------------------------------------|
      |------------------------------------------------------------------|
      |                                                                  |
      |-11-14-12-11------------------------------------------------------|
      |-------------10-7-10-8-7------------------------------------------|
      |-------------------------9-8~-------------------------------------|
      |------------------------------------------------------------------|
      |------------------------------------------------------------------|
      |------------------------------------------------------------------|
      |                                                                  | [03:17~03:51]
      |-------12-17-12-------12-16-12-------12-15-12-------12-14-12------|
      |----13-------------13-------------13-------------13---------------|
      |-14-------------14-------------14-------------14------------------|
      |------------------------------------------------------------------|
      |------------------------------------------------------------------|
      |------------------------------------------------------------------|
      |                                                                  |
      |-14-15-14-12------------------------------------------------------|
      |-------------8-7-5-8-7-5------------------------------------------|
      |------------------------------------------------------------------|
      |-------------------------5-4-2~-----------------------------------|
      |------------------------------------------------------------------|
      |------------------------------------------------------------------|
      |                                                                  |
      |-----------------------------7-8-11--12-7-------------------------|
      |----------------------7-8-10--------------8-7---------------------|
      |--------------------8-------------------------9-------------------|
      |--------------7-8-9-----------------------------9-----------------|
      |----------6-9-------------------------------------10-9-7~---------|
      |-9-10-7-9---------------------------------------------------------|
      |                                                                  |
      |------------------------------------------------------------------|
      |----8--7------------------------------------------------(10r8)----|
      |-9--------9--8----------------------------------------------------|
      |----------------10--9--7------------------------------------------|
      |--------------------------10--9--7--6-----------------------------|
      |---------------------------------------10--9---(7b11)-------------|
      |                                                                  |
      |(Gtr II)                                                          |
      |------------------------------------------------------------------|
      |------------------------------------------------------------------|
      |------------------------------------------------------------------|
      |--2---------------------------9-----------------------------------|
      |--2---2---2---2---2---2---2---9---9---9---9---9---9---9-----------|
      |--2---2---2---2---2---2---2---9---9---9---9---9---9---9-----------|
      |      .   .   .   .   .   .       .   .   .   .   .   .           |
      |------------------------------------------------------------------|
      |------------------------------------------------------------------|
      |------------------------------------------------------------------|
      |--7---------------------------2-----------------------------------|
      |--7---7---7---7---7---7---7---2---2---2---2---2---2---2-----------|
      |--7---7---7---7---7---7---7---2---2---2---2---2---2---2-----------|
      |      .   .   .   .   .   .       .   .   .   .   .   .           | (2x)
      |------------------------------------------------------------------|
      |------------------------------------------------------------------|
      |------------------------------------------------------------------|
      |--2---------------------------9-----------------------------------|
      |--2---2---2---2---2---2---2---9---9---9---9---9---9---9-----------|
      |--2---2---2---2---2---2---2---9---9---9---9---9---9---9-----------|
      |      .   .   .   .   .   .       .   .   .   .   .   .           |
      |------------------------------------------------------------------|
      |------------------------------------------------------------------|
      |------------------------------------------------------------------|
      |--7---------------------------2-----------------------------------|
      |--7---7---7---7---7---7---7---2---2---2---2---2---2---2-----------|
      |--7---7---7---7---7---7---7---2---2---2---2---2---2---2-----------|
      
             .   .   .   .   .   .       .   .   .   .   .   .
      
      
      Repetir Intro (Como Guitarra 2) [03:51~04:15]
      Repetir Refrão [04:16~04:48]
      
      Repetir Intro [04:48~FIM]
        Composição: Matt ShadowsColaboração e revisão:
        • Yuri
        • Rodrigo
        • thalya
        • abiathi
        • +2

        Comentários 39

        140 .
        • guigo002 guigo002: Em 11/08/2014 20:24

          Mals galera, corrigi ela mas esqueci de colocar a afinação correta

        • Caio Caio: Em 06/05/2014 15:35

          Por favor faz vídeo aula dessa música!!

        • hernanicd hernanicd: Em 05/05/2014 21:05

          Vo tenta arruma ela , se puderem me dizer a afinação original ja ajuda

          • Rodrigo Rodrigo: Em 01/08/2014 09:21

            mano a afinação é C#

        • Rodrigo Rodrigo: Em 03/05/2014 12:47

          Gente Vocês estão ligado que a afinação é Dropada em C# e não Eb

        • Lucas Lucas: Em 25/02/2014 21:45

          eu sei que a música e de guitarra mas nao tem nenhuma posiçao que encaixa como base pra violão se alguem souber me responde ae

          • Victor Victor: Em 02/03/2014 15:11

            n e querendo me achar n mas sou quase profissional e nao entendi direito nada q ta ai em cima

        • thalya thalya: Em 31/01/2014 18:35

          agora esta certo..

        • thalya thalya: Em 30/01/2014 19:36

          Ta tudo errado eu enviei mas nao colocaram.

        • henryque.calvo henryque.calvo: Em 24/01/2014 00:09

          Uma video aula seria mto bom

          • jonatas jonatas: Em 12/03/2014 11:26

            a video aula acaba se tornando melhor, pois o professor dá dicas mas, é importante entender a tablatura, pois é um meio muito prático, porém

          • Thays Thays: Em 17/02/2015 17:29

            henryque você já deve ter achado com certeza, mas caso não, tem video aula no tv cifras dela.

        140 cancelar

        conseguiu tocar?

        • •••

        covers

        Grave um vídeo tocando Hail To The King e mande pra gente!

        Ex.: http://www.youtube.com/watch?v=0IvSvIwGdwk
        ver covers de outras músicas »
        0:00 / 0:00

        Capítulos

          2 versões de baixo exibições contribuição e correção
          play/pausefechar subir/descer velocidade
          6ª corda E5ª corda A4ª corda D3ª corda G2ª corda B1ª corda E
            acordes
            publicidade
            fechar
            ok