Notificações Amigos pendentes

      Avenged Sevenfold

      The Art Of Subconscious Illusion

      479 exibições
      ~=let ring
      
      G|----------------------------------------------------------|
      D|---------66-6-66---------88-8-88---------66-6-66----------|
      A|-33-3-33---------66-6-66---------33-3-33------------------|
      D|-------------------------------------------------55555555-|
      
      G|------------------------------------|
      D|------------------------------------|
      A|---------------43-------------------| x4
      D|-53565303-53565---53565303-11113333-|
      
      G|----------------------|
      D|----------------------|
      A|--------------5-------|
      D|-0~--1-3~--0~---1-3~--|
      
      G|------------------|
      D|------------------|
      A|------------------| x5
      D|-0000000011113333-|
      
      G|---------------|
      D|---------------|
      A|---------------|
      D|-0000000011113-|
      
      G|---------------------------------|
      D|---------------------------------|
      A|---------------------------------|
      D|-0--0--0--0-0-0-0-0--0--0-00-0-0-|
      
      G|-----------------------|
      D|-----------------------|
      A|-----------3-----------| x4
      D|-00001-0000--0000-0357-|
      
      G|------------|
      D|------------|
      A|------------|
      D|-0--0--0--0-|
      
      G|---------|
      D|---------|
      A|---------|
      D|-0-3-5-7-|
      Play this a bunch
      
      G|----------------------|
      D|----------------------|
      A|--------------5-------|
      D|-0~--1-3~--0~---1-3~--|
      
      G|------------------|
      D|------------------|
      A|------------------| x2
      D|-0000000011113333-|
      
      G|---------------------------|
      D|---------------------------|
      A|----35-----356----35-------| x4
      D|-0----3-0------0----3-0011-|
      
      G|-----------------------------------------------|
      D|-----------------------------------------------|
      A|-----------------------------------------------|
      D|-0~---6~---53565303-53565303­-53565303-53565303-|
      
      G|-------------------------------------|
      D|-------------------------------------|
      A|-------------------------------------|
      D|-00000000-66666666-55555555-55555555-|
      
      G|------------------------------------|
      D|------------------------------------|
      A|----------------------------565310--|
      D|-00000000-66666666-55555555-------0-|
      
      G|-------------------------------------|
      D|-------------------------------------|
      A|--------------6----------------------|
      D|-0-----00-6--6-653-55555555-5353-1-0-|
      
      G|------------------------------------|
      D|------------------------------------|
      A|-------------6----------------------| x6
      D|-0-----00-6-6-653-55555555-55555555-|
      He variates each bar so mess around
      
      G|---------------------|
      D|---------------------|
      A|-------------6-------|
      D|-0-----00-6-6-653-5~-|
        Composição: Avenged Sevenfold

        Comentários 0

        140 .
        140 cancelar

        conseguiu tocar?

        covers

        Grave um vídeo tocando The Art Of Subconscious Illusion e mande pra gente!

        Ex.: http://www.youtube.com/watch?v=0IvSvIwGdwk
        ver covers de outras músicas »
        0:00 / 0:00

        Capítulos

          1 versão de violão dificuldade exibições contribuição e correção
          1 versão de guitarra dificuldade exibições contribuição e correção
          1 versão de cavaco dificuldade exibições contribuição e correção
          1 versão de teclado dificuldade exibições contribuição e correção
          1 versão de baixo exibições contribuição e correção
          1 versão de Guitar Proformatodownloadscontribuição
          play/pausefechar subir/descer velocidade
          6ª corda E5ª corda A4ª corda D3ª corda G2ª corda B1ª corda E
            acordes
            publicidade
            fechar
            ok