Cifra Club

Aprenda

Avicii vs. Conrad Sewell - Taste The Feeling

Avicii

Cifra: Principal (violão e guitarra)
Tom: F#
[Intro] D#m

       C#          B
Feels good, in my heart, in my soul
                         A#m    D#m
When you're right here beside me
              C#              B  A#m  D#m
I don't ever want this day to end
    C#            B
We can watch the waves, have a Coke
                    A#m   D#m
And you sit here beside me
               C#             B  A#m
Take a little long my heart again
           D#m                C#
So we can feel whatever you feel
             B
Together be real, together at

[Refrão]

        F#       C#                   B
No one can stop me when I taste the feeling
        B            F#      C#  B
Nothing could ever bring me down
        F#       C#                  B
No one can stop me when I taste the feeling
                     F#      C#  B
Nothing could ever bring me down

You make it easier to sing it

[Solo] D#m  C#  B  A#m
       D#m  C#  B  A#m
       D#m  C#  B  A#m
       D#m  C#  B  A#m

E|----------------------------------------|
B|---------7-------9-----11-9-11-9---7----|
G|-8---6-8-----6-8-----8-----------8---8--|
D|----------------------------------------|
A|----------------------------------------|
E|----------------------------------------|

E|----------------------------------------|
B|---------7-------9-----11-9-11-9---7----|
G|-----6-8-----6-8-----8-----------8---8--|
D|----------------------------------------|
A|----------------------------------------|
E|----------------------------------------|

You make it easier to sing it

E|----------------------------------------|
B|---------7-------9-----11-9-11-9---7----|
G|-8---6-8-----6-8-----8-----------8---8--|
D|----------------------------------------|
A|----------------------------------------|
E|----------------------------------------|

E|----------------------------------------|
B|---------7-------9-----11-9-11-9---7----|
G|-----6-8-----6-8-----8-----------8---8--|
D|----------------------------------------|
A|----------------------------------------|
E|----------------------------------------|

D#m       C#          B
   Feels good as we stand on the shore
                          A#m   D#m
But our hearts are still jumping
              C#             B      A#m  D#m
Grab another Coke and let's dive in
        C#              B
Oh, my love, there's a song in my soul
               A#m    D#m
When you are around me
             C#        B     A#m
You make it easier to sing it
           D#m               C#
So we can feel whatever you feel
             B
Together be real, together at

[Refrão]

        F#       C#                   B
No one can stop me when I taste the feeling
        B            F#      C#  B
Nothing could ever bring me down
        F#       C#                  B
No one can stop me when I taste the feeling
                     F#      C#  B
Nothing could ever bring me down

[Ponte]

B
 With every fading sunset
F#
  We see the stars align
B                            D#m
 We make the simple moments last for a lifetime
     B
So, we`ll feel forever
         F#
You and me, together
         B
We can stay forever
        D#m
And be real together

[Refrão]

        F#       C#                   B
No one can stop me when I taste the feeling
        B            F#      C#  B
Nothing could ever bring me down
        F#       C#                  B
No one can stop me when I taste the feeling
                     F#      C#  B
Nothing could ever bring me down

You make it easier to sing it

[Solo] D#m  C#  B  A#m
       D#m  C#  B  A#m
       D#m  C#  B  A#m
       D#m  C#  B  A#m

E|----------------------------------------|
B|---------7-------9-----11-9-11-9---7----|
G|-8---6-8-----6-8-----8-----------8---8--|
D|----------------------------------------|
A|----------------------------------------|
E|----------------------------------------|

E|----------------------------------------|
B|---------7-------9-----11-9-11-9---7----|
G|-----6-8-----6-8-----8-----------8---8--|
D|----------------------------------------|
A|----------------------------------------|
E|----------------------------------------|

You make it easier to sing it

E|----------------------------------------|
B|---------7-------9-----11-9-11-9---7----|
G|-8---6-8-----6-8-----8-----------8---8--|
D|----------------------------------------|
A|----------------------------------------|
E|----------------------------------------|

E|----------------------------------------|
B|---------7-------9-----11-9-11-9---7----|
G|-----6-8-----6-8-----8-----------8---8--|
D|----------------------------------------|
A|----------------------------------------|
E|----------------------------------------|
Colaboração e revisão:
  • Thiago Almeida
  • Elson Souza
  • Paulo Castro
9.767 exibições
    • ½ Tom
    • A
    • Bb
    • B
    • C
    • Db
    • D
    • Eb
    • E
    • F
    • F#
    • G
    • Ab
  • Adicionar à lista

    0 comentários

    Mostrar mais comentários

    Conseguiu tocar?

    4 Tocaram 0 Ainda não

    Grave um vídeo tocando Avicii vs. Conrad Sewell - Taste The Feeling e mande pra gente!

    00:00 / 00:00
    outros vídeos desta música
    repetir qualidade Automático
    Outros vídeos desta música
    00:00 / 00:00
    Automático

    Cifra Club Pro

    Aproveite o Cifra Club com benefícios exclusivos e sem anúncios
    Cifra Club Pro
    Aproveite o Cifra Club com benefícios exclusivos e sem anúncios
    OK