Cifra Club

Aprenda

Heart Upon My Sleeve (feat. Dan Reynolds)

Avicii

Cifra: Principal (violão e guitarra)
tom: Em
(Instrumental)

Intro:
     C                    G
E|--------------------|--------------------|
B|----------0h1p0-----|--------------------|
G|------0---------2p0-|-----0----0h2p0---0-|
D|---2----2-----------|---0---0--------4---|
A|-3------------------|--------------------|
E|--------------------|-3------------------|

E|-----------------|-0------------|
B|-----0------0----|-5--3---------|
G|-----------------|--------4/2-0-|
D|---1------1------|--------------|
A|-2------2--------|--------------|
E|-----------------|--------------|
     C                    G
E|--------------------|--------------------|
B|----------0h1p0-----|--------------------|
G|------0---------2p0-|-----0----0h2p0---0-|
D|---2----2-----------|---0---0--------4---|
A|-3------------------|--------------------|
E|--------------------|-3------------------|
     Em7M
E|------------------------------------|
B|------0------0-------------0--------|
G|---------------------------------4--|
D|---1-------1------1-----1--------1--|
A|-2-------2------2----2--------2--2--|
E|------------------------------------|

Primeira Parte: 2x
     Em            C7M           G               D9/F#
E|-------------|-------------|---------------|-------------0-|
B|-----------0-|-----------0-|-------------0-|-----------3---|
G|------0------|------0------|-------0-------|------2--------|
D|---2-----2---|---2-----2---|---0------0----|---0----0------|
A|-------------|-3-----------|---------------|---------------|
E|-0-----------|-------------|-3-------------|-2-------------|

Segunda Parte [Repetição da Intro]:

[Violão 1 repete a intro]:

[Violão 2 entra fazendo a levada]:

Terceira Parte [Cello] 3x:
     E5         Em          B4/E         E5
E|----------|-----------|------------|-------------------------|
B|----------|-----------|------------|-------------------------|
G|----------|-----------|------------|-------------------------|
D|--------2-|---------5-|---------4--|--------0----------------|
A|-2--2---2-|--2--2---2-|--2--2---2--|-2--2---2---2--2---2--3--|
E|-0--0---x-|--0--0---x-|--0--0---x--|-0--0---x---0--0---0--0--|
     E5         Em         B4/E        E5
E|----------|----------|-----------|----------------------------------|
B|----------|----------|-----------|----------------------------------|
G|----------|----------|-----------|----------------------------------|
D|--------2-|--------5-|--------4--|--------0----------------------2--|
A|-2--2---2-|-2--2---2-|-2--2---2--|-2--2---2---2--2---2--3--2-----2--|
E|-0--0---x-|-0--0---x-|-0--0---x--|-0--0---x---0--0---0--0--0---0-x--|
     E5         B4/E       E5
E|----------|----------|--------------------------|
B|----------|----------|--------------------------|
G|----------|----------|--------------------------|
D|-------5--|--------4-|---------0----------------|
A|-2--2--2--|-2--2---2-|--2--2---2---2--2---2--3--|
E|-0--0--x--|-0--0---x-|--0--0---x---0--0---0--0--|

Quarta Parte [Repetição da Primeira Parte] 4x:

Final [Repetição da Segunda Parte e da Terceira Parte]:
Colaboração e revisão:
  • Isac Araújo
868 exibições
    • ½ Tom
    • Am
    • Bbm
    • Bm
    • Cm
    • C#m
    • Dm
    • Ebm
    • Em
    • Fm
    • F#m
    • Gm
    • G#m
  • Adicionar à lista

    0 comentários

    Ver todos os comentários

    Conseguiu tocar?

    1 Tocaram 0 Ainda não

    Grave um vídeo tocando Heart Upon My Sleeve (feat. Dan Reynolds) e nos envie!

    00:00 / 00:00
    outros vídeos desta música
    repetir qualidade Automático
    Outros vídeos desta música
    00:00 / 00:00
    Automático

    Cifra Club Pro

    Aproveite o Cifra Club com benefícios exclusivos e sem anúncios
    Cifra Club Pro
    Aproveite o Cifra Club com benefícios exclusivos e sem anúncios
    OK