Without You (feat. Sandro Cavazza)

Avicii

Composição de: Sandro Cavazza / Tim Bergling
tom: D
[Intro] D  G  D  A  D
        D  G  D  A  D

E|-----2----2-3-3-2--------|
B|-3-5---3-----------------|
G|-------------------------|
D|-------------------------|
A|-------------------------|
E|-------------------------|

E|-----2-------------------|
B|-3-5---3--3-2-2-3--------|
G|-------------------------|
D|-------------------------|
A|-------------------------|
E|-------------------------|

E|-----2----2-3-3-2--------|
B|-3-5---3-----------------|
G|-------------------------|
D|-------------------------|
A|-------------------------|
E|-------------------------|

E|-----2-------------------|
B|-3-5---3--3-2-2-3--------|
G|-------------------------|
D|-------------------------|
A|-------------------------|
E|-------------------------|

 D                     G       D
You said that we would always be
 D                  A       D
Without you I feel lost at sea
   D                        G         D
Through the darkness you'd hide with me
 Bm                    A         D
Like the wind we'd be wild and free

 Bm  A  D                      G  Bm  A
You       said you'd follow me a-ny-where
         Bm  A  D              G     Bm  A
But your eyes     tell me you won't be there

            G            A       Bm
I've gotta learn how to love without you
            D         A       G
I've gotta carry my cross without you
              G              A     Bm
Stuck in the middle and I'm just about to
 D        A       G
Figure it out without you
         G            A       Bm
And I'm done sitting home without you
 D             A      G
Fuck I'm going on without you
           G              A       Bm
I'm gonna tear this city down without you
           D           A       G
I'm goin' Bonnie and Clyde without you

( G  A  Bm )
( D  A  G )
( G  A  Bm )
( D  A  G )

 D                G      D
Now I'm running away my dear
  D                   A      D
From myself and the truth I fear
    D
My heart is beating
   G          D
I can't see clear
 Bm                   A        D
How I'm wishing that you were here

 Bm  A  D                      G  Bm  A
You       said you'd follow me a-ny-where
         Bm  A  D              G     Bm  A
But your eyes     tell me you won't be there

            G            A       Bm
I've gotta learn how to love without you
            D         A       G
I've gotta carry my cross without you
              G              A     Bm
Stuck in the middle and I'm just about to
 D        A       G
Figure it out without you
         G            A       Bm
And I'm done sitting home without you
 D             A      G
Fuck I'm going on without you
           G              A       Bm
I'm gonna tear this city down without you
           D           A       G
I'm goin' Bonnie and Clyde without you

[Final] G  A  Bm
        D  A  G
        G  A  Bm
        D  A  G
        G  A  Bm
        D  A  G
        G  A  Bm
        D  A  G
Página 1 / 1

Letras e título
Acordes e artista

resetar configurações
OK