Fiquei Sabendo

Aviões do Forró

Composição de: Caninana Do Forro / Hélio Rodrigues
tom: E
Intro:C#m  E  G#m  F#  A

E|-------------4-4h5p4-------4----|
B|------4-5-7----------7-5-7------|
G|6---6---------------------------|
D|--6-----------------------------|
A|--------------------------------|
E|--------------------------------|

E|-------------4-4h5p4------4-----|
B|------4-5-7----------7-5-----4~-|
G|6---6---------------------------|
D|--6-----------------------------|
A|--------------------------------|
E|--------------------------------|

E|--5/7~-----------4--4h5p4-4~----|
B|-------4h5h4-\2-----------------|
G|--------------------------------|
D|--------------------------------|
A|--------------------------------|
E|--------------------------------|

   C#m
Ouvi falar que você tá de namorado novo
       A
Mas é só passatempo pra não ficar sozinha
    E                                          B
Porque seu coração bate por outro cara que sou eu
                   C#m
Eu também soube que você até andou chorando
             A
E se maldizendo, "o que eu estou fazendo?"
     E                                     B
Andou se reclamando porque vacilou e me perdeu

                  A                   C#m  (Contratempo 2ª vez B C#m)
Mas seu orgulho falou mais alto que a paixão
                            A
E você nega até a morte que não
            B
Que não me ama e não quer mais voltar   

Riff: 

E|---------------|
B|----------2-0--|
G|------1-2------|
D|1-2-4----------|
A|---------------|
E|---------------|

          C#m               A             (C#m 1ª vez mudo e 2ª vez contratempo)
Saiba que eu sei que ainda pensa em mim
       E                        B
Que é louca por mim e não que assumir
C#m                 A                      E
Sei que está com namorado, mas a carne e fraca
                          B
E quer estar aqui do meu lado
          C#m
Fiquei sabendo
Página 1 / 1

Letras e título
Acordes e artista

resetar configurações
OK