Cifra Club

American Idiot (cover)

Avril Lavigne

Tab de baixo: Principal
exibições 675
intro: guitarra 
procure ouvir a musica assim dá para pegar o tempo direitinho.... 
  
Verse: 
 
G------------------------------------------------- 
D------------------------------------------------- 
A--------55-----5--------55----5------------------ 
E----55-----33----5---55----33---5---------------- 
 
Chorus: 
 
G--------------------------------------------------
D--------------------------------------------------
A---5555555-----------------777777777-------------- 
E------------55555555555----------------5555555555- 
 
 
durante o solo da guitarra: 
 
G------------------------------------------- 
D---------------------------------------------- 
A---5555555-----------------777777777-------------- 
E------------55555555555----------------5555555555 
 
 
essa variação é fácil de pegar (fica duranteos versos) ouvindo a musica da para encaixar ela 
perfeitamente: 
 
variação: 
 
G-------------------------------------------------- 
D-------------------------------------------------- 
A-------55------5----------------55-------5--------
E--55-------33------5----3---55------33------5-----
Colaboração e revisão:
  • Ingrid Lopes

0 comentários

    mostrar mais comentários

    Conseguiu tocar?

    0tocaram0ainda não

    Grave um vídeo tocando American Idiot (cover) e mande pra gente!

    00:00 / 00:00
    outros vídeos desta música
    repetirqualidadeautomática
    Outro vídeos desta música
      00:00 / 00:00
      automática
      OK