Cifra Club

Everything Back But You

Avril Lavigne

Cifra: Principal
exibições 18.609
Tom: E
Intro:
e|----4---------------|--5-4----5-4-------|
B|------5-7-5---------|------5----5-------|
G|--4---------6-4-----|-------------------|
D|--------------------|-------------------|

Today was the worst day
I went through hell
I wish I could remove it from my mind
Two months away from you
But I couldn't tell
I thought that everything was gonna be just fine

Riff do Baixo:
G|-------7-6-4----------|-------------------|
D|--6-4-----------------|-------------------|

C#5                        
The post card that you wrote
           A5                        
With the stupid little note
    E5                         B5
Something wasn't quite right about it
C#5
It smelt like cheap perfume
         A5
And it didn't smell like you
E5                            B5
There is no way you can get around it

Because you wrote

E5
I wish you were her
B5
You left without the e
A5
You left without me
A5
And now you're somewhere out there

E5
With that bitch slut psycho babe
F#5
I hate you, Why are guys so lame
A5
Everything I gave you
A5
I want everything back but you

e|----4---------------|--5-4----5-4-------|
B|------5-7-5---------|------5----5-------|
G|--4---------6-4-----|-------------------|
D|--------------------|-------------------|

You first tried to tell me
All along
That you weren't the right one for me
My friends tried to tell me
To be strong
I bet you didn't think that I would see

G|-------7-6-4----------|-------------------|
D|--6-4-----------------|-------------------|

C#5                        
The post card that you wrote
           A5                        
With the stupid little note
    E5                         B5
Something wasn't quite right about it
C#5
I'd want to see you cry
       A5
Like I did a thousand times
E5
Now you're losing me
              B5
You're losing me now

Because you wrote

E5
I wish you were her
B5
You left without the e
A5
You left without me
A5
And now you're somewhere out there

E5
With that bitch slut psycho babe
F#5
I hate you, Why are guys so lame
A5
Everything I gave you
A5
I want everything back but you

B|--5-4-5--7---(2x) |--5-4-2-------------|
G|-------------|    |--------4-2-1-2-4---|
D|-------------|    |--------------------|

e|--12-11-12--14---(2x) |--12-11-9--------------------|
B|-----------------|    |-----------12-10-9-----------|
G|-----------------|    |--------------------11-8-9---|

C#5                        
The post card that you wrote
           A5                        
With the stupid little note
    E5                         B5
Something wasn't quite right about it
C#5
I'd want to see you cry
       A5
Like I did a thousand times
E5
Now you're losing me
              B5
You're losing me now

Because you wrote

I wish you were her
You left without the e
You left without me
And now you're somewhere out there

E5
With that bitch slut psycho babe
F#5
I hate you, Why are guys so lame
A5
Everything I gave you
A5
I want everything back but you

E5
I wish you were her
B5
You left without the e
A5
You left without me
A5
I want everything back but you



By Well - Te amo RAH
Acordes para:
    Composição: Avril Lavigne / Butch WalkerColaboração e revisão:
    • Weslley Santos
    • Thiago Ribeiro

    0 comentários

      mostrar mais comentários

      Conseguiu tocar?

      3tocaram0ainda não

      Grave um vídeo tocando Everything Back But You e mande pra gente!

      00:00 / 00:00
      outros vídeos desta música
      repetirqualidadeautomática
      Outro vídeos desta música
        00:00 / 00:00
        automática
        OK