Cifra Club

Forgotten

Avril Lavigne

Tab de baixo: Principal
exibições 2.322
Avril Lavigne, Evan Taubenfeld
Baixo (5strings)

G||------------------|------|-------------------|------------------|
D||------------------|------|-------------------|------------------|
A||------------------|------|-------------------|------------------|
E||------------------|------|-------------------|------------------|
B||------------------|------|--1----------------|------------------|

                                                                     
----------------------|----------------------|----------------------|
-------1--------------|-------1--------------|-------1---------5----|
--3---------5---------|--3---------5---------|--3---------5---------|
-----------------3----|-----------------3----|----------------------|
----------------------|----------------------|----------------------|

                                                                  
----------------------|----------------------|-------------------|
-------1---------5----|-------1---------5----|-------------------|
--3---------5---------|--3---------5---------|-------------------|
----------------------|----------------------|-------------------|
----------------------|----------------------|--1----------------|

                                                                     
----------------------|----------------------|----------------------|
----------------------|----------------------|----------------------|
----------------------|----------------------|----------------------|
-----------------3----|-----------------3----|-----------------3----|
--1----4----3---------|--1----4----3---------|--1----4----3---------|

                                                       
-------------------|----------------------------------|
-------------------|----------------------------------|
-------------------|----------------------------------|
-------------------|------------------4-4-4-4-1-1-1-1-|
--1----------------|--1-1-1-1-4-4-4-4-----------------|

                                                                      
----------------------------------|----------------------------------|
----------------------------------|----------------------------------|
----------------------------------|----------------------------------|
------------------4-4-4-4-1-1-1-1-|------------------4-4-4-4-1-1-1-1-|
--1-1-1-1-4-4-4-4-----------------|--1-1-1-1-4-4-4-4-----------------|

                                                                               
-------------------|------------------|-------------------|-------------------|
-------------------|------------------|-------------------|-------------------|
-------------------|------------------|-------------------|--3----------------|
-------------------|------------------|-------------------|-------------------|
--1----------------|------------------|--1----------------|-------------------|

                                                                     
----------------------|----------------------|----------------------|
----------------------|----------------------|----------------------|
----------------------|----------------------|----------------------|
-----------------3----|-----------------3----|-----------------3----|
--1----4----3---------|--1----4----3---------|--1----4----3---------|

                                                       
-------------------|----------------------------------|
-------------------|----------------------------------|
-------------------|----------------------------------|
-------------------|------------------4-4-4-4-1-1-1-1-|
--1----------------|--1-1-1-1-4-4-4-4-----------------|

                                                                      
----------------------------------|----------------------------------|
----------------------------------|----------------------------------|
----------------------------------|----------------------------------|
------------------4-4-4-4-1-1-1-1-|------------------4-4-4-4-1-1-1-1-|
--1-1-1-1-4-4-4-4-----------------|--1-1-1-1-4-4-4-4-----------------|

                                                                           
--------------------|------------------|----------------------------------|
--------------------|------------------|------------------1-1-1-1-1-1-1-1-|
--------------------|------------------|--3-3-3-3-3-3-3-3-----------------|
--------------------|------------------|----------------------------------|
--1--------1--------|------------------|----------------------------------|

                                                                      
----------------------------------|----------------------------------|
------------------3-3-3-3-3-3-3-3-|------------------1-1-1-1-1-1-1-1-|
--5-5-5-5-5-5-5-5-----------------|--3-3-3-3-3-3-3-3-----------------|
----------------------------------|----------------------------------|
----------------------------------|----------------------------------|

                                                                      
----------------------------------|----------------------------------|
------------------3-3-3-3-3-3-3-3-|------------------1-1-1-1-1-1-1-1-|
--5-5-5-5-5-5-5-5-----------------|--3-3-3-3-3-3-3-3-----------------|
----------------------------------|----------------------------------|
----------------------------------|----------------------------------|

                                                                      
----------------------------------|----------------------------------|
------------------3-3-3-3-3-3-3-3-|------------------1-1-1-1-1-1-1-1-|
--5-5-5-5-5-5-5-5-----------------|--3-3-3-3-3-3-3-3-----------------|
----------------------------------|----------------------------------|
----------------------------------|----------------------------------|

                                                                      
----------------------------------|----------------------------------|
--6-6-6-6-6-6-6-6-3-3-3-3-3-3-3-3-|----------------------------------|
----------------------------------|----------------------------------|
----------------------------------|------------------4-4-4-4-1-1-1-1-|
----------------------------------|--1-1-1-1-4-4-4-4-----------------|

                                                                      
----------------------------------|----------------------------------|
----------------------------------|----------------------------------|
----------------------------------|----------------------------------|
------------------4-4-4-4-1-1-1-1-|------------------4-4-4-4-1-1-1-1-|
--1-1-1-1-4-4-4-4-----------------|--1-1-1-1-4-4-4-4-----------------|

                                                                      
----------------------------------|----------------------------------|
----------------------------------|----------------------------------|
----------------------------------|----------------------------------|
------------------4-4-4-4-1-1-1-1-|------------------4-4-4-4-1-1-1-1-|
--1-1-1-1-4-4-4-4-----------------|--1-1-1-1-4-4-4-4-----------------|

                                                                      
----------------------------------|----------------------------------|
----------------------------------|----------------------------------|
----------------------------------|----------------------------------|
------------------4-4-4-4-1-1-1-1-|------------------4-4-4-4-1-1-1-1-|
--1-1-1-1-4-4-4-4-----------------|--1-1-1-1-4-4-4-4-----------------|

                                                                      
----------------------------------|----------------------------------|
----------------------------------|----------------------------------|
----------------------------------|----------------------------------|
------------------4-4-4-4-1-1-1-1-|------------------4-4-4-4-1-1-1-1-|
--1-1-1-1-4-4-4-4-----------------|--1-1-1-1-4-4-4-4-----------------|

                                                                     
----------------------------------|----------------------------------|
----------------------------------|----------------------------------|
----------------------------------|----------------------------------|
------------------4-4-4-4-1-1-1-1-|------------------4-4-4-4-1-1-1-1-|
--1-1-1-1-4-4-4-4-----------------|--1-1-1-1-4-4-4-4-----------------|

                                                                          
----------------------------------|-------------------|------------------|
----------------------------------|-------------------|------------------|
----------------------------------|-------------------|------------------|
------------------4-4-4-4-1-1-1-1-|--1----------------|------------------|
--1-1-1-1-4-4-4-4-----------------|-------------------|------------------|

                                           
------------------|------------------|---||
------------------|------------------|---||
------------------|------------------|---||
------------------|------------------|---||
------------------|------------------|---||
Composição: Avril Lavigne / Chantal KreviazukColaboração e revisão:
  • Fagner oliveira

0 comentários

    mostrar mais comentários

    Conseguiu tocar?

    0tocaram0ainda não

    Grave um vídeo tocando Forgotten e mande pra gente!

    00:00 / 00:00
    outros vídeos desta música
    repetirqualidadeautomática
    Outro vídeos desta música
      00:00 / 00:00
      automática
      OK