Cifra Club

I'm With You

Avril Lavigne

Tab de baixo: Principal
exibições 18.336
Verse
G|--------------------------|
D|--------------------------|
A|----0-0---5-5---0-0---5-5-|
E|-2-2---2-2---2-2---2-2----|

Pre-chorus
G|---------------|
D|---------------|
A|-7-7-5-5-7-7-5-|
E|---------------|

Chorus
G|------------------------------------|
D|----0---0---0-----------------------|
A|-0-2-0-2-0-2-4-2-0--4-4-4-4-0-0-0-0-|
E|------------------------------------|

Bridge
G|------------------------------------------------|
D|------------------------------------------------|
A|-7-7-7-7-7-7-5-5-5-5-5-5--4-4-4-4-4-4-7-7-7-7-7-| x2
E|------------------------------------------------|


_______________________________________________________
Contribuição: Gabriel Fernandes do Nascimento(gabrielonline@globo.com)

0 comentários

    mostrar mais comentários

    Conseguiu tocar?

    1tocaram0ainda não

    Grave um vídeo tocando I'm With You e mande pra gente!

    00:00 / 00:00
    outros vídeos desta música
    repetirqualidadeautomática
    Outro vídeos desta música
      00:00 / 00:00
      automática
      OK