Cifra Club

Nobody's Home

Avril Lavigne

Cifra: Principal
exibições 284.254
Tom: G# (com acordes na forma de G) Capotraste na 1ª casa
Intro:

(guitar 1 - x2)

E|--0~~----------|-0~--------------|-0~----------|-0~------------|
B|---------------|-----------------|-------------|---------------|
G|---------------|-----------------|-------------|---------------|
D|---------------|-----------------|-------------|---------------|
A|---------------|-----------------|-------------|---------------|
E|---------------|-----------------|-------------|---------------|


(guitar 2)

E|------------0--|------------0--|-------------|---------------|
B|--------0------|--------3------|----------0--|----------1--0-|
G|------4---4----|------2---2----|------0------|------0--------|
D|----2----------|----0----------|----2---2----|----2---2------|
A|---------------|---------------|--3----------|--3------------|
E|---------------|---------------|-------------|---------------|


(verse)
(guitar 1)
Em          D                 C
I couldn't tell you why she felt that way,  She felt it everyday.
Em             D                C
And I couldn't help her, I just watched her make the same mistakes again.

(guitar 2)

E|------------0--|---------------|-------------|---------------|
B|--------0------|---------------|----------0--|---------------|
G|------4---4----|---------------|------0------|---------------|
D|----2----------|---------------|----2---2----|---------------|
A|---------------|---------------|--3----------|---------------|
E|---------------|---------------|-------------|---------------|


E|------------0--|---------------|-------------|---------------|
B|--------0------|---------------|----------0--|----------1--0-|
G|------4---4----|---------------|------0------|------0--------|
D|----2----------|---------------|----2---2----|----2---2------|
A|---------------|---------------|--3----------|--3------------|
E|---------------|---------------|-------------|---------------|


(pre Chorus)
(guitar 1)
Em
What's wrong, what's wrong now?
D
Too many, too many problems.
C
Don't know where she belongs, where she belongs.

(guitar 2)

E|------------0--|------------0--|-------------|-------------|
B|--------0------|--------3------|----------0--|-----------1-|
G|------4---4----|------2---2----|------0------|------0------|
D|----2----------|----0----------|----2---2----|----2---2----|
A|---------------|---------------|--3----------|--3----------|
E|---------------|---------------|-------------|-------------|


(chorus)
(distorted - guitar 1)

       Em              G                 D             D
E|---------------|-----------------|-------------|---------------|
B|---------------|-----------------|-------------|---------------|
G|---------------|-----------------|--7----------|--7------------|
D|--2------------|--5--------------|--7----------|--7------------|
A|--2------------|--5--------------|--5----------|--5------------|
E|--0------------|--3--------------|-------------|---------------|


(distorted - guitar 2)

       Em              G                 D             F#
E|---------------|-----------------|-------------|---------------|
B|---------------|-----------------|-------------|---------------|
G|---------------|-----------------|--7----------|--11-----------|
D|--2------------|--5--------------|--7----------|--x------------|
A|--2------------|--5--------------|--5----------|--9------------|
E|--0------------|--3--------------|-------------|---------------|


(guitar 3)
Em              G                  D
She wants to go home, but nobody's home.
D
It's where she lies, broken inside.
Em               G               D
With no place to go, no place to go to dry her eyes.
D
Broken inside.

(verse)
(guitar 1)
Em        D        C
Open your eyes and look outside, find a reason why.
Em          D         C
You've been rejected, and now you can't find what you left behind.

(guitar 2)

E|------------0--|---------------|-------------|---------------|
B|--------0------|---------------|----------0--|---------------|
G|------4---4----|---------------|------0------|---------------|
D|----2----------|---------------|----2---2----|---------------|
A|---------------|---------------|--3----------|---------------|
E|---------------|---------------|-------------|---------------|


E|------------0--|---------------|-------------|---------------|
B|--------0------|---------------|----------0--|----------1--0-|
G|------4---4----|---------------|------0------|------0--------|
D|----2----------|---------------|----2---2----|----2---2------|
A|---------------|---------------|--3----------|--3------------|
E|---------------|---------------|-------------|---------------|


(pre chorus)
(guitar 1)
Em
Be strong, be strong now.
D
Too many, too many problems.
C
dont know where she belongs, where she belongs.

(guitar 2)

E|------------0--|------------0--|-------------|---------------|
B|--------0------|--------3------|----------0--|----------0----|
G|------4---4----|------2---2----|------0------|------0--------|
D|----2----------|----0----------|----2---2----|----2---2------|
A|---------------|---------------|--3----------|--3------------|
E|---------------|---------------|-------------|---------------|


(chorus)
(distorted - guitar 1)

       Em              G                 D             D
E|---------------|-----------------|-------------|---------------|
B|---------------|-----------------|-------------|---------------|
G|---------------|-----------------|--7----------|--7------------|
D|--2------------|--5--------------|--7----------|--7------------|
A|--2------------|--5--------------|--5----------|--5------------|
E|--0------------|--3--------------|-------------|---------------|


(distorted - guitar 2)

       Em              G                 D
E|---------------|-----------------|-------------|---------------|
B|---------------|-----------------|-------------|---------------|
G|---------------|-----------------|--7----------|--11-----------|
D|--2------------|--5--------------|--7----------|--x------------|
A|--2------------|--5--------------|--5----------|--9------------|
E|--0------------|--3--------------|-------------|---------------|


(guitar 3)
Em              G                  D
She wants to go home, but nobody's home.
D
It's where she lies, broken inside.
Em               G               D
With no place to go, no place to go to dry her eyes.
D
Broken inside.

(bridge)
Em              D
Her feelings she hides.
                     C
Her dreams she can't find.
                C
shes losing her mind
              Em
She's fallen behind.
                   D
She can't find her place.
                 C
She's losing her faith
                  C
She's fallen from grace.
                   C
She's all over the place. Yeah  oh oh

(chorus)
Distorted (guitar 1)

       Em              G                 D             D
E|---------------|-----------------|-------------|---------------|
B|---------------|-----------------|-------------|---------------|
G|---------------|-----------------|--7----------|--7------------|
D|--2------------|--5--------------|--7----------|--7------------|
A|--2------------|--5--------------|--5----------|--5------------|
E|--0------------|--3--------------|-------------|---------------|


(distorted - guitar 2)

       Em              G                 D
E|---------------|-----------------|-------------|---------------|
B|---------------|-----------------|-------------|---------------|
G|---------------|-----------------|--7----------|--11-----------|
D|--2------------|--5--------------|--7----------|--x------------|
A|--2------------|--5--------------|--5----------|--9------------|
E|--0------------|--3--------------|-------------|---------------|


(guitar 3)
Em              G                  D
She wants to go home, but nobody's home.
D
It's where she lies, broken inside.
Em               G               D
With no place to go, no place to go to dry her eyes.
D
Broken inside.

(outro)
(distorted - guitars)

       Em              G                 D             D
E|---------------|-----------------|-------------|---------------|
B|---------------|-----------------|-------------|---------------|
G|---------------|-----------------|--7----------|--7------------|
D|--2------------|--5--------------|--7----------|--7------------|
A|--2------------|--5--------------|--5----------|--5------------|
E|--0------------|--3--------------|-------------|---------------|


(guitar 3)
Em          G             D
She's lost inside, lost inside...oh oh.
Em          G             D             Em
She's lost inside, lost inside...oh oh yeah.
Acordes para:
    Composição: Avril Lavigne / Ben MoodyColaboração e revisão:
    • lucas matheus
    • Nilsangela Galhardi
    • Augusto Tamura

    0 comentários

      mostrar mais comentários

      Conseguiu tocar?

      110tocaram0ainda não

      Grave um vídeo tocando Nobody's Home e mande pra gente!

      00:00 / 00:00
      outros vídeos desta música
      repetirqualidadeautomática
      Outro vídeos desta música
        00:00 / 00:00
        automática
        OK