Cifra Club

Sk8er Boy

Avril Lavigne

Tab de baixo: Principal
exibições 7.365
Intro.: (2x)
G-------------------------------------------------------------------
D-------------------------------------------------------------------
A-5-5-5-5-5-5-5-5---------------------------------------------------
E-----------------5-5-5-5-5-5-5-5--7-7-7-7-7-7-7-7--6-6-6-6-6-6-6-6-

  Versos.: (2x)
G-------------------------------------------------------------------
D-------------------------------------------------------------------
A-5-5-5-5-5-5-5-5---------------------------------------------------
E-----------------5-5-5-5-5-5-5-5--7-7-7-7-7-7-7-7--6-6-6-6-6-6-6-6-

G-------------------------------------------------------------------
D-------------------------------------------------------------------
A-5-5-5-5-5-5-5-5---------------------------------------------------
E-----------------5-5-5-5-5-5-5-5--7-7-7-7-7-7-7-7--8-8-8-8-8-8-8-8-

  Refrão.: (2x)							     Final da 2ª Vez
G-------------------------------------------------------------------|---------------
D-------------------------------------------------------------------|---------------
A-----------------3-3-3-3-3-3-3-3--1-1-1-1-1-1-1-1--0-0-0-0-0-0-0-0-|---------------
E-1-1-1-1-1-1-1-1---------------------------------------------------|-1-1-1-1-1-1-1-

  Solo.: (2x)
G------------------------------------------------------------
D------------------------------------------------------------
A-----------------3-3-3-3-3-3-3-3--1-1-1-1-1-1-1-1---4-4-4-4-
E-1-1-1-1-1-1-1-1--------------------------------------------

  Pós Solo.: (2x)
G-----------------------------------------------------------------------------------
D-----------------------------------------------------------------------------------
A-5-5-5-5-5-5-5-5-----------------3-3-3-3-3-3-3-3--1-1-1-1-1-1-1-1--0-0-0-0-0-0-0-0-
E-----------------1-1-1-1-1-1-1-1---------------------------------------------------

  Parada
G-------------------------------------------------------------
D-------------------------------------------------------------
A-5--5-5---------------------------5--5-5---------------------
E--------5--5-5---7--7-7--6--6-6----------5--5-5---7--7-7--8~-
--------------------------------------------------------------------------------
Composição: Avril Lavigne / The MatrixColaboração e revisão:
  • Hellektra

0 comentários

    mostrar mais comentários

    Conseguiu tocar?

    1tocaram0ainda não

    Grave um vídeo tocando Sk8er Boy e mande pra gente!

    00:00 / 00:00
    outros vídeos desta música
    repetirqualidadeautomática
    Outro vídeos desta música
      00:00 / 00:00
      automática
      OK