Cifra Club

Aprenda

Used To Love Her

Axl Rose

Cifra: Principal (violão e guitarra)
Tom: C (forma dos acordes no tom de Db) Afinação: Eb Ab Db Gb Bb Eb
[Intro] D  A  G  A
        D  A  G  A

   D5
E|------------------------------------------|
B|------------------------------------------|
G|-2---4----2-4-----------------------------|
D|-0---0-0--0-0-0---------------------------|
A|------------------------------------------|
E|------------------------------------------|

   A5
E|------------------------------------------|
B|------------------------------------------|
G|------------------------------------------|
D|-2---2-4---2---4--------------------------|
A|-0---0-0-0-0-0-0-0------------------------|
E|------------------------------------------|

   G5
E|------------------------------------------|
B|------------------------------------------|
G|------------------------------------------|
D|-0---2----0-2-----------------------------|
A|------------------------------------------|
E|-3---3-3--3-3-3---------------------------|

   A5
E|------------------------------------------|
B|------------------------------------------|
G|------------------------------------------|
D|-2---2-4---2---4--------------------------|
A|-0---0-0-0-0-0-0-0------------------------|
E|------------------------------------------|

[Primeira Estrofe]

D            A
  I used to love her
G               A
  But i had to kill her
D            A
  I used to love her
G               A
  But i had to kill her

[Segunda Estrofe]

   G5
E|------------------------------------------|
B|------------------------------------------|
G|------------------------------------------|
D|-0---2----0-2-----------------------------|
A|------------------------------------------|
E|-3---3-3--3-3-3---------------------------|

   A5
E|------------------------------------------|
B|------------------------------------------|
G|------------------------------------------|
D|-2---2-4---2---4--------------------------|
A|-0---0-0-0-0-0-0-0------------------------|
E|------------------------------------------|

   G5
E|------------------------------------------|
B|------------------------------------------|
G|------------------------------------------|
D|-0---2----0-2-----------------------------|
A|------------------------------------------|
E|-3---3-3--3-3-3---------------------------|

   A5
E|------------------------------------------|
B|------------------------------------------|
G|------------------------------------------|
D|-2---2-4---2---4--------------------------|
A|-0---0-0-0-0-0-0-0------------------------|
E|------------------------------------------|

   G5
E|------------------------------------------|
B|------------------------------------------|
G|------------------------------------------|
D|-0---2----0-2-----------------------------|
A|------------------------------------------|
E|-3---3-3--3-3-3---------------------------|

   A5
E|------------------------------------------|
B|------------------------------------------|
G|------------------------------------------|
D|-2---2-4---2---4--------------------------|
A|-0---0-0-0-0-0-0-0------------------------|
E|------------------------------------------|

   D7
E|-2----2-----------------------------------|
B|-1------1---------------------------------|
G|-2--------2-------------------------------|
D|-0--0-------------------------------------|
A|------------------------------------------|
E|------------------------------------------|

G           A
  I had to put her
G          A
  Six feet under
G             A                 D
  And I can still hear her complain

[Terceira Estrofe]

D            A
  I used to love her
G               A
  But I had to kill her
D            A
  I used to love her
G               A
  But I had to kill her

[Quarta Estrofe]

G             A
  I knew I'd miss her
G              A
  So I had to keep her
G               A               D
  She's buried right in my backyard

[Solo] D  A  G  A
       D  A  G  A
       G  A  G  A
       G  A  D

E|-------10--------------------------------------------|
B|----------10------------------------10---------------|
G|-9b11--------b11r9-7-9~------7-7~------9b11--9~------|
D|-------------------------7-9-------------------------|
A|-----------------------------------------------------|
E|-----------------------------------------------------|

E|------------------10--------10--------10-------------|
B|------10----10h12-----10h12-----10h12----10----------|
G|-9/11----11------------------------------------------|
D|-----------------------------------------------------|
A|-----------------------------------------------------|
E|-----------------------------------------------------|

E|-10b12--b12r10--10-12-12~--12p10--17-----------------|
B|-------------------------------------17b19-17~-------|
G|-----------------------------------------------------|
D|-----------------------------------------------------|
A|-----------------------------------------------------|
E|-----------------------------------------------------|

E|----------------14-15-16-17--------------------------|
B|-15-17-15-17b19-------------17b18r17p15-17----15-----|
G|-------------------------------------------16--------|
D|-----------------------------------------------------|
A|-----------------------------------------------------|
E|-----------------------------------------------------|

E|-17b19-17--------------------------------------------|
B|-----------17b18r17p15-17----15----------------------|
G|--------------------------16-------------------------|
D|-----------------------------------------------------|
A|-----------------------------------------------------|
E|-----------------------------------------------------|

E|----------------------------17b19--b19-b19-b19r17~---|
B|-17b18r17p15-17----15----15--------------------------|
G|----------------16----16-----------------------------|
D|-----------------------------------------------------|
A|-----------------------------------------------------|
E|-----------------------------------------------------|

E|--------17--------17--------17-----------------------|
B|-17b19-----17b19-----17b19-----b19r17p15-17----------|
G|-----------------------------------------------------|
D|-----------------------------------------------------|
A|-----------------------------------------------------|
E|-----------------------------------------------------|

E|-----------------------------------------------------|
B|----15-17-15----15~----------------------------------|
G|-16----------16--------------------------------------|
D|-----------------------------------------------------|
A|-----------------------------------------------------|
E|-----------------------------------------------------|

E|-----------------------------------------------------|
B|-15--15-15-15----13-------------13-------------------|
G|-14--14-14-14----12-10h11-------11-------------------|
D|--------------------------12----12-------------------|
A|-----------------------------12-12-------------------|
E|-----------------------------------------------------|

[Quinta Estrofe]

D            A
  I used to love her
G               A
  But I had to kill her
D            A
  I used to love her, (whoa yeah)
G               A
  But i had to kill her

[Sexta Estrofe]

G                 A
  She bitched so much
G               A
  She drove me nuts
G                A            D
  And now we're happier this way


[Solo] D  A  G  A
       D  A  G  A
       G  A  G  A
       G  A  D

E|-/10-----10--------10\-------------------------------|
B|-/13--13----13--13---------10----10----10\--8~-------|
G|-/14--------------------/9-----9-----9------7~-------|
D|-----------------------------------------------------|
A|-----------------------------------------------------|
E|-----------------------------------------------------|

E|-----------------------------------------------------|
B|-8h10p8---------10--10-----10~-----------------------|
G|--------9------------9h11---9~-----------------------|
D|----------9/11---------------------------------------|
A|-----------------------------------------------------|
E|-----------------------------------------------------|

E|-----------------------------------------------------|
B|-------------------------------------------------7-7-|
G|---------------------------------7-7-----9-9-7-------|
D|---------------------7---9p7---7-----9-7-------9-----|
A|-----5---7p5---5-7/9---9-----9-----------------------|
E|-5h7---7-----7---------------------------------------|

E|-----------------------------------------------------|
B|-----8-8-7---10-10-8-7-8p7---7-7h8p7---7-------7-10--|
G|-9-7-------9---------------9---------9---9b11--------|
D|-----------------------------------------------------|
A|-----------------------------------------------------|
E|-----------------------------------------------------|

E|-----------------------------------------------------|
B|-----------------------------------------------------|
G|-9b11r9p7---9---9~---7--9--7-------------------------|
D|----------9---x--------------------------------------|
A|-----------------------------------------------------|
E|-----------------------------------------------------|

E|--------10-10--------10-10--------10-10--------10-10-|
B|-10b12--------10b12--------10b12--------10b12--------|
G|-----------------------------------------------------|
D|-----------------------------------------------------|
A|-----------------------------------------------------|
E|-----------------------------------------------------|

E|-----------------------------------------------------|
B|-10b12r10p8-10--10~---8--10--8-----------------------|
G|-----------------------------------------------------|
D|-----------------------------------------------------|
A|-----------------------------------------------------|
E|-----------------------------------------------------|

E|--------10-10--------10-10--------10-10--------10-10-|
B|-10b12--------10b12--------10b12--------10b12--------|
G|-----------------------------------------------------|
D|-----------------------------------------------------|
A|-----------------------------------------------------|
E|-----------------------------------------------------|

E|-----------------------------------------------------|
B|-10b12r10p8-10--10~---8--10--8-----------------------|
G|-----------------------------------------------------|
D|-----------------------------------------------------|
A|-----------------------------------------------------|
E|-----------------------------------------------------|

E|--------7-10-----------------------------------------|
B|-10b12-------10b12--7-10-------7-10------------------|
G|-------------------------9b11-------9b11r9p7---9p7---|
D|---------------------------------------------9-------|
A|-----------------------------------------------------|
E|-----------------------------------------------------|

E|-----------------------------------------------------|
B|------------------------------------10---------------|
G|-----9b11~---9b11-9--7-----7~---9-7----9b11r9-7~-----|
D|-9-7--------------------9----------------------------|
A|-----------------------------------------------------|
E|-----------------------------------------------------|

[Sétima Estrofe]

D            A
  I used to love her
G               A
  But I had to kill her
D            A
  I used to love her
G               A
  But I had to kill her

[Oitava Estrofe]

G           A
  I had to put her
G          A
  Six feet under
G             A                 D
  And I can still hear her complain
Colaboração e revisão:
  • vinicius magalhaes
14 exibições
    • ½ Tom
    • A
    • Bb
    • B
    • C
    • Db
    • D
    • Eb
    • E
    • F
    • F#
    • G
    • Ab
  • Adicionar à lista

    0 comentários

    Mostrar mais comentários

    Conseguiu tocar?

    0 Tocaram 0 Ainda não

    Grave um vídeo tocando Used To Love Her e mande pra gente!

    00:00 / 00:00
    outros vídeos desta música
    repetir qualidade Automático
    Outros vídeos desta música
    00:00 / 00:00
    Automático

    Cifra Club Pro

    Aproveite o Cifra Club com benefícios exclusivos e sem anúncios
    7 dias grátis
    Cifra Club Pro
    Aproveite o Cifra Club com benefícios exclusivos e sem anúncios
    7 dias grátis
    OK