Cifra Club

Satã Clama Metal

Azul Limão

Cifra: Principal (violão e guitarra)
Tom: C
Cifras e tabs: Gabriel Fox (Flo.oD Animeband)
guitarvanhelsing@hotmail.com

Intro:
|----------------|-----------------|
|----------------|-----------------|
|----------------|-----------------|
|----------------|-----------------|2x
|----------------|-----------------|
|-5-7-5-7-5-7-8--|-5-7-5-7-10-8--7-|

|----------------|-----------------|
|----------------|-----------------|
|----------------|-----------------|
|----------------|-----------------|
|----------------|-----------------|
|-0-2-0-2-0-2-3--|-0-2-0-2-5-3-2---|

Verso:
A5
O chão estremece 
Com a marcação 
O meu sangue ferve 
Eu vou explodir 

|----------------|-----------------|
|----------------|-----------------|
|----------------|-----------------|
|----------------|-----------------|
|----------------|-----------------|
|-5-7-5-7-5-7-8--|-5-7-5-7-10-8--7-|

|----------------|-----------------|
|----------------|-----------------|
|----------------|-----------------|
|----------------|-----------------|
|----------------|-----------------|
|-0-2-0-2-0-2-3--|-0-2-0-2-5-3-2---|

A5
O metal derrete 
No centro do inferno 
A minha alma grita 
Aaahhh... 


|----------------|-----------------|
|----------------|-----------------|
|----------------|-----------------|
|----------------|-----------------|
|----------------|-----------------|
|-5-7-5-7-5-7-8--|-5-7-5-7-10-8--7-|

|----------------|-----------------|
|----------------|-----------------|
|----------------|-----------------|
|----------------|-----------------|
|----------------|-----------------|
|-0-2-0-2-0-2-3--|-0-2-0-2-5-3-2---|

Bb5  C5      G5
Satã clama metal 
Bb5  C5      G5
Satã clama metal 
Bb5  C5      G5
Satã clama metal 
Bb5  C5      A5
Satã clama metal 

|----------------|-----------------|
|----------------|-----------------|
|----------------|-----------------|
|----------------|-----------------|
|----------------|-----------------|
|-5-7-5-7-5-7-8--|-5-7-5-7-10-8--7-|

|----------------|-----------------|
|----------------|-----------------|
|----------------|-----------------|
|----------------|-----------------|
|----------------|-----------------|
|-0-2-0-2-0-2-3--|-0-2-0-2-5-3-2---|

|----------------|-----------------|
|----------------|-----------------|
|----------------|-----------------|
|----------------|-----------------|4x
|-2-2-2-2-2-2-2-2|-7-4-5-----------|
|-0-0-0-0-0-0-0-0|-5-2-3-----------|

|A5|%|B5|Em|%|
|B5|%|C5|Em|%|

|----------------|-----------------|
|----------------|-----------------|
|----------------|-----------------|
|----------------|-----------------|
|----------------|-----------------|
|-5-7-5-7-5-7-8--|-5-7-5-7-10-8--7-|

|----------------|-----------------|
|----------------|-----------------|
|----------------|-----------------|
|----------------|-----------------|
|----------------|-----------------|
|-0-2-0-2-0-2-3--|-0-2-0-2-5-3-2---|

A5
Não tenho juizo 
Cerebro fatal 
Esta na minha cabeça 
Uma fome animal


|----------------|-----------------|
|----------------|-----------------|
|----------------|-----------------|
|----------------|-----------------|
|----------------|-----------------|
|-5-7-5-7-5-7-8--|-5-7-5-7-10-8--7-|

|----------------|-----------------|
|----------------|-----------------|
|----------------|-----------------|
|----------------|-----------------|
|----------------|-----------------|
|-0-2-0-2-0-2-3--|-0-2-0-2-5-3-2---|

A5
O metal derrete 
No centro do inferno 
A minha alma grita 
Aaahhh... 

|----------------|-----------------|
|----------------|-----------------|
|----------------|-----------------|
|----------------|-----------------|
|----------------|-----------------|
|-5-7-5-7-5-7-8--|-5-7-5-7-10-8--7-|

|----------------|-----------------|
|----------------|-----------------|
|----------------|-----------------|
|----------------|-----------------|
|----------------|-----------------|
|-0-2-0-2-0-2-3--|-0-2-0-2-5-3-2---|

Bb5  C5      G5
Satã clama metal 
Bb5  C5      G5
Satã clama metal 
Bb5  C5      G5
Satã clama metal 
Bb5  C5      A5
Satã clama metal 

|----------------|-----------------|
|----------------|-----------------|
|----------------|-----------------|
|----------------|-----------------|
|----------------|-----------------|
|-5-7-5-7-5-7-8--|-5-7-5-7-10-8-7--|

|----------------|-----------------|----------------------|
|----------------|-----------------|----------------------|
|----------------|-----------------|----------------------|
|----------------|-----------------|----------------------|
|----------------|-----------------|----------------------|
|-5-7-5-7-5-7-8--|-5-7-5-7-10-8-7--|-10-8-7-10-8-7-5-3-2-0|

|----------------------|
|----------------------|
|----------------------|
|-2--------------------|
|-2--------------------|
|-0--------------------|
exibições 2.874
Acordes para:
    Composição: Marcos Dantas Colaboração e revisão:
    • Gabriel Fox

    0 comentários

    mostrar mais comentários

    Conseguiu tocar?

    0 tocaram 0 ainda não

    Grave um vídeo tocando Satã Clama Metal e mande pra gente!

    00:00 / 00:00
    outros vídeos desta música
    repetir qualidade Automático
    Outros vídeos desta música
    00:00 / 00:00
    Automático
    OK