Cifra Club

Aprenda

Over The Future

Babymetal

Cifra: Principal (violão e guitarra)
tom: Db
Tom:
Db
*Pick slide then* 
Riff A:                   * * * * * * * * * * * * * * *  
D#|---------------------------------------------------------------------------| 
A#|---------------------------------------------------------------------------| 
F#|---------------------------------------------------------------------------| 
C#|-/7--5--3--2--0--2--7------------------------------------------------------| 
G#|-/7--5--3--2--0--2--7------------------------------------------------------| 
C#|-/7--5--3--2--0--2--7-7-7-7-7-7-7-7-7-7-7-7-7-7-7-7------------------------| 

Riff B: 
D#|---------------------------------------------------------------------------| 
A#|-11-10-----------11-10----------11-10--------------------------------------| 
F#|-------10/12-----------10/12----------10-------10--------------------------| 
C#|-----------------------------------------12-10----12-10-8------------------| 
G#|---------------------------------------------------------------------------| 
C#|---------------------------------------------------------------------------| 

Riff B (Continued): 
D#|--------------------------8-10---------------------------------------------| 
A#|--11-10----------11-10-11-------10~-11h13p11-------------------------------|
F#|--------10/12--------------------------------------------------------------| 
C#|---------------------------------------------------------------------------| 
G#|---------------------------------------------------------------------------| 
C#|---------------------------------------------------------------------------| 

Verse A: 
     ****   ****   ****   ****   ****   ****   **** 
D#|---------------------------------------------------------------------------| 
A#|---------------------------------------------------------------------------| 
F#|------5------5------3------3------5------5------3--------------------------| 
C#|------5------5------3------3------5------5------3--------------------------| 
G#|--33333--33333--11111--11111--33333--33333--11111--6-5-3-1-----------------| 
C#|---------------------------------------------------------------------------| 

Verse A (Continued):
     ****   ****   ****   ****    
D#|---------------------------------------------------------------------------| 
A#|-------------------------------------------------4-3-----------------------| 
F#|------5------5------3------3-------3-3--5------5-----5-3-------------------| 
C#|------5------5------3------3--6-6--3-3--5----5-----------------------------| 
G#|--33333--33333--11111--11111--6-6--1-1--3--3-------------------------------| 
C#|------------------------------6-6------------------------------------------| 

Repeat Verse A

Pre Chorus: 
    ****   ****   ****   ****   ****   ****  ******************** 
D#|---------------------------------------------------------------------------| 
A#|---------------------------------------------------------------------------| 
F#|---------------------------------------------------------------------------| 
C#|-----7------5------3------2------0------2----------------------------------| 
G#|-----7------5------3------2------0------2-----------------7777-------------| 
C#|-77777--55555--33333--22222--00000--22222-7777999910101010-----------------| 

Pre Chorus (Continued): 
    ****   ****   ****   ****   ****   ****  ******************** 
D#|---------------------------------------------------------------------------| 
A#|---------------------------------------------------------------------------| 
F#|---------------------------------------------------------------------------| 
C#|-----7------5------3------2------0------2----------------------7-----------| 
G#|-----7------5------3------2------0------2----------------------7-----------| 
C#|-77777--55555--33333--22222--00000--22222-77779999101010109999-7-----------| 

Chorus:                         **************** 
D#|---------------------------------------------------------------------------| 
A#|---------------------------------------------------------------------------| 
F#|----------------------------------------------------------7777-------------| 
C#|-1~-3~-8-7-5----------1~-3~-------------------555577778888-----------------|
G#|-1~-3~-8-7-5----57----1~-3~---------------5555-----------------------------|
C#|-1~-3~-8-7-5-578--87--1~-3~--5555777778888---------------------------------|

Chorus (Continued): 
D#|---------------------------------------------------------------------------| 
A#|---------------------------------------------------------------------------| 
F#|---------------------------------------------------------------------------| 
C#|-1~-3~-8-7-5----------4~-6~------------------------------------------------|
G#|-1~-3~-8-7-5----57----4~-6~------------------------------------------------|
C#|-1~-3~-8-7-5-578--87--4~-6~------------------------------------------------|

Riff B 

 Verse B: + + (Natural Harmonics)
D#|------7--------------------------------------------------------------------| 
A#|--------7------------------------------------------------------------------| 
F#|-5x--------3-3-3~-3------5x----3-3-3~-3------------------------------------|
C#|-5x--------3-3-3~-3-0----5x----3-3-3~-3-0----------------------------------|
G#|-3x--------1-1-1~-1---1--3x----1-1-1~-1---1--------------------------------|
C#|---------------------------------------------------------------------------| 

Verse B (Continued):
       **  ****  ****  **** ** 
D#|---------------------------------------------------------------------------| 
A#|---------------------------------------------4-3---------------------------| 
F#|------5-----5-----3-----3--------3-3-5-----5-----5-3-----------------------| 
C#|------5-----5-----3-----3----6-6-3-3-5---5---------------------------------| 
G#|----333-33333-33111-11111-11-6-6-1-1-3-3-----------------------------------| 
C#|-----------------------------6-6-------------------------------------------| 

Verse A
Pre Chorus 
Chorus 

Pre solo 
D#|---------------------------------------------------------------------------| 
A#|-------16b-18b-20b-------(Sorry, not sure)---------------------------------|
F#|---------------------------------------------------------------------------| 
C#|-8-8-8--------------8-8-8------------------8-8-8---8-8-8-------------------| 
G#|-8-8-8--------------8-8-8------------------8-8-8---8-8-8-------------------| 
C#|-8-8-8--------------8-8-8------------------8-8-8---8-8-8-------------------| 

Solo Lead (Not 100% accurate): 
D#|---------------------------------------------------------------------------| 
A#|----------------------------------------------7b8r7-5------8---------------| 
F#|-----------5-----------------7------------------------7-7b9~~r7b9----------|
C#|--7-5--7-5----7--5--7-5--7-5---7--5--7-5--7-5------------------------------| 
G#|---------------------------------------------------------------------------| 
C#|---------------------------------------------------------------------------| 

D#|--------5-8-5-----8-5-----------5---------3-6-3----------------------------| 
A#|------5-------5-------5-------5---------3-------3----5-7-8-5-7-8-10-7------| 
F#|----5-----------5-------5---5---------3-----------3------------------------| 
C#|--7-----------------------7---------5--------------------------------------| 
G#|---------------------------------------------------------------------------| 
C#|---------------------------------------------------------------------------| 

D#|-7-8-10-8-10-12-10-12-13-12-13-15-13-15-17~-17\----------------------------|
A#|--------------------------------------------17\----------------------------|
F#|---------------------------------------------------------------------------| 
C#|---------------------------------------------------------------------------| 
G#|---------------------------------------------------------------------------| 
C#|---------------------------------------------------------------------------| 

Solo Rhythm is just the Pre Chorus 

Then Chorus 

D#|---------------------------------------------------------------------------| 
A#|---------------------------------------------------------------------------| 
F#|---------------------------------------------------------------------------| 
C#|--8------------------------------------------------------------------------| 
G#|--8------------------------------------------------------------------------| 
C#|--8------------------------------------------------------------------------| 

 Outro (Similar to Riff B):
D#|---------------------------------------------------------------------------| 
A#|-11-10-----------11-10----------11-10--------------------------------------| 
F#|-------10/12-----------10/12----------10-------10--------------------------| 
C#|-----------------------------------------12-10----12-10-8------------------| 
G#|---------------------------------------------------------------------------| 
C#|---------------------------------------------------------------------------| 

Outro (Continued): 
     T          T          T          T 
D#|--13-10-6-10-13-10-6-10-13-10-6-10-13-10-6-10------------------------------| 
A#|---------------------------------------------------------------------------| 
F#|---------------------------------------------------------------------------| 
C#|---------------------------------------------------------------------------| 
G#|---------------------------------------------------------------------------| 
C#|---------------------------------------------------------------------------| 

Outro (Continued): 
     T          T          T          T 
D#|--15-12-8-12-15-12-8-12-15-12-8-12-15-12-8-12-13~~~\-----------------------|
A#|---------------------------------------------------------------------------| 
F#|---------------------------------------------------------------------------| 
C#|---------------------------------------------------------------------------| 
G#|---------------------------------------------------------------------------| 
C#|---------------------------------------------------------------------------| 

Final Chord: 
D#|---------------------------------------------------------------------------| 
A#|---------------------------------------------------------------------------| 
F#|---------------------------------------------------------------------------| 
C#|--8------------------------------------------------------------------------| 
G#|--8------------------------------------------------------------------------| 
C#|--8------------------------------------------------------------------------|
Composição de BABYMETAL
Colaboração e revisão:
  • Leandro Kitsune
90 exibições
    • ½ Tom
    • A
    • Bb
    • B
    • C
    • Db
    • D
    • Eb
    • E
    • F
    • F#
    • G
    • Ab
  • Adicionar à lista

    0 comentários

    Ver todos os comentários

    Conseguiu tocar?

    0 Tocaram 0 Ainda não

    Grave um vídeo tocando Over The Future e nos envie!

    00:00 / 00:00
    Outros vídeos desta música
    Repetir Qualidade Automático
    Outros vídeos desta música
    00:00 / 00:00
    Automático

    Cifra Club Pro

    Aproveite o Cifra Club com benefícios exclusivos e sem anúncios
    Cifra Club Pro
    Aproveite o Cifra Club com benefícios exclusivos e sem anúncios
    OK