House Of Suffering

Bad Brains

Composição de: Darryl Jenifer / Dr. Know / Phil Hudson
tom: A
(intro)

e|---------------------------------------------------------------------------|
b|---------------------------------------------------------------------------|
g|--10---------9--10---------9--10---------9----12--11------------10^^-------|
d|--10--7--10--9--10--7--10--9--10--7--10--9----12--11--12--11----10^^-------|
a|--8---7--10--7--8---7--10--7--8---7--10--7----10--9---12--11----8^^--------|
e|------5--8----------5--8----------5--8----------------10--9----------------|

           (verse)
e|-------|-------------------------------------------------------------------|
b|-------|-------------------------------------------------------------------|
g|-------|-----------------------------------------7-------------------------|
d|--777--|--4--444--5--555--7--9--7/5----4--5--7---7---9---------------------|
a|--777--|--4--444--5--555--7--9--7/5----4--5--7---5---9---------------------|x2
e|--555--|--2--222--3--333--5--7--5/3----2--3--5-------7---------------------|
               xxx     xxx

E|--------------------|    |------------------------------------------------|
B|--------------------|    |------------------------------------------------|
G|--6----6----7-------|    |---12--11-------------666--9--777---------------|
D|--6----6----7--9----| x3 |---12--11--12--11-----666--9--777---------------|
A|--4----4----5--9----|    |---10--9---12--11-----444--7--555---------------|
E|---------------7----|    |-----------10--9--------------------------------|

(verse 2x)

then
e|---------------------------------------------------------------------------|
b|---------------------------------------------------------------------------|
g|---------------------------------------------------------------------------|
d|---4--444--5--555--7---9--7/6--6--5--555-----------------------------------|
a|---4--444--5--555--7---9--7/6--6--5--555-----------------------------------|
e|---2--222--3--333--5---7--5/4--4--3--333-----------------------------------|
        xxx     xxx

(verse 2x)

(solo)
e|-----------------------------------------------------7---------------------|
b|----------------------------------7----------------------------------------|
g|----7^-------------------------------6-----------6--7^---------------------|
d|-------9p6h9--6-------------------------9--6--9----------------------------|
a|-----------------9--6------------------------------------------------------|
e|-----------------------9--7------------------------------------------------|
                                              ~~~
e|---4--7p6p4----------------------------------------------------------------|
b|-------------7p6p4---------------------------------------------------------|
g|--------------------6p4^-----------4^--------------------------------------|
d|-------------------------6-4h6-4h6----6--4h6p4-----------------------------|
a|------------------------------------------------6p4------------------------|
e|------------------------------------------------------7p4^--4^-------------|

e|---------------------------------------------------------------------------|
b|---------------------------------------------------------------------------|
g|--6-----6----7---------12--11-------------666--9--777----------------------|
d|--6-----6----7--9------12--11--12--11-----666--9--777----------------------|
a|--4----4-----5--9------10--9---12--11-----444--7--555----------------------|
e|----------------7--------------10--9---------------------------------------|

(verse 2x)

(ending)
e|----------------------------|----------------------------------------------------------------|
b|----------------------------|----------------------------------------------------------------|
g|--12--11------------666--9--|---10---------9--10---------9--10---------9----12--11-----------|
d|--12--11--12--11----666--9--|---10--7--10--9--10--7--10--9--10--7--10--9----12--11--12--11---|
a|--10--9---12--11----444--7--|---8---7--10--7--8---7--10--7--8---7--10--7----10--9---12--11---|
e|----------10--9-------------|-------5--8----------5--8----------5--8----------------10--9----|

| /  slide up
| \  slide down
| h  hammer-on
| p  pull-off
| ~  vibrato
| +  harmonic
| x  mute note
| ^  bend
Página 1 / 1

Letras e título
Acordes e artista

resetar configurações
OK