Cifra Club

American Jesus

Bad Religion

Cifra: Versão 7 (violão e guitarra)
tom: C
Album: Recipite For Hate
Note: Listen to the song for the time.

Intro Part 1                    Intro Part 2

  |-----------4x-------------|
E|----------------------------|---------------------------------------------|
B|----------------------------|---------------------------------------------|
G|----------------------------|---------------------------------------------|
D|----------------0-----------|---------------0--------------------------2--|
A|--0--0-2-3--2-3---3-2-3-2-0-|--0--0-2-3-2-3---3-2-3-2-0---0--0-2-3--2-3---|
E|----------------------------|---------------------------------------------|


Verso 1
 
  |------------------------------3x---------------------------|
e|-------------------------------------------------------------|
B|-------------------------------------------------------------|
G|-------------------------------------------------------------|
D|-7-7-7-7-7-10-10-10-10-10-10-3-3-3-3-3-3-3-3-5-5-5-5-5-5-5-5-|
A|-7-7-7-7-7-10-10-10-10-10-10-3-3-3-3-3-3-3-3-3-3-3-3-3-3-3-3-|
E|-5-5-5-5-5--8--8--8--8--8--8-1-1-1-1-1-1-1-1-3-3-3-3-3-3-3-3-|

Verso 2
e|-------------------------------------------------------------|
B|-------------------------------------------------------------|
G|-------------------------------------------------------------|
D|-7-7-7-7-7-10-10-10-10-10-10-3-3-3-3-3-3-9-9-9-9-9-9-9-9-9-9-|
A|-7-7-7-7-7-10-10-10-10-10-10-3-3-3-3-3-3-9-9-9-9-9-9-9-9-9-9-|
E|-5-5-5-5-5--8--8--8--8--8--8-1-1-1-1-1-1-7-7-7-7-7-7-7-7-7-7-|


Coro

  |--------2x--------|
e|-------------------|------------------------------------------------------|
B|-------------------|------------------------------------------------------|
G|-------------------|-----------7-7-10-10----------------------------------|
D|-7-7-10-10-3-3-5-5-|-7-7-10-10-7-7-10-10--7-7-7-7-5-5-5-5-3-3-3-3-3-3-3-3-|
A|-7-7-10-10-3-3-5-5-|-7-7-10-10-5-5--8--8--7-7-7-7-5-5-5-5-3-3-3-3-3-3-3-3-|
E|-5-5--8--8-1-1-3-3-|-5-5--8--8------------5-5-5-5-3-3-3-3-1-1-1-1-1-1-1-1-|



Song Orden:
Intro Part 1
Intro Part 2
Verso 1
Verso 2
Coro
Intro Part 1
Verso 1
Verso 2
Coro
Verso 1 (P.M.)
Verso 1 (only one time)
Verso 2
Coro x2
Intro Part 1 x2

Un saludo para todos la generacion 2001-2004 del CBTis 246 de Zapopan Jalisco, en especial para Angelica.
Composição de Brett Gurewitz / Greg Graffin
792 exibições
    • ½ Tom
    • A
    • Bb
    • B
    • C
    • Db
    • D
    • Eb
    • E
    • F
    • F#
    • G
    • Ab
  • Adicionar à lista

    0 comentários

    Ver todos os comentários

    Conseguiu tocar?

    0 Tocaram 0 Ainda não

    Grave um vídeo tocando American Jesus e nos envie!

    00:00 / 00:00
    Outros vídeos desta música
    Repetir Qualidade Automático
    Outros vídeos desta música
    00:00 / 00:00
    Automático

    Cifra Club Pro

    Aproveite o Cifra Club com benefícios exclusivos e sem anúncios
    Cifra Club Pro
    Aproveite o Cifra Club com benefícios exclusivos e sem anúncios
    OK