Cifra Club

American Jesus

Bad Religion

Cifra: Versão 3 (violão e guitarra)
tom: C
#

From: L*
Date: Thu, 8 Feb 1996 19:43:28 -0500

Album-Recipe For Hate
Transcribed by Adam Ragusea
Questions, comments, corrections or just want to talk about
BR-L*

is my favorite band by far, and this album is my favorte as well. If anyone
if you just want to talk about them or anything at all, do the same. I have
no girlfriend and I am very lonely. ; )
 
    As you can see I have not indicated rythem what so ever so you'll have to
figure it out yourself.

E-------------------------             E-----
B-------------------------             B-----
G------------------------- And ends on G-----
D--------------0----------             D--2--
A-0-0-2-3-2-3---3-2-3-2-0-             A-----
E-------------------------             E-----

E-------------------------------------------------
B-------------------------------------------------
G-2-2-2-2-2-2-2-2-5-5-5-5-5-5-5-5-----------------
D-2-2-2-2-2-2-2-2-5-5-5-5-5-5-5-5-3-3-3-3-3-3-3-3-
A-0-0-0-0-0-0-0-0-3-3-3-3-3-3-3-3-3-3-3-3-3-3-3-3-
E---------------------------------1-1-1-1-1-1-1-1-

E-----------------
B-----------------
G-----------------
D-5-5-5-5-5-5-5-5-
A-5-5-5-5-5-5-5-5-
E-3-3-3-3-3-3-3-3-

In the chorus, the rythem is different
E---------------------------------
B---------------------------------
G-2-2-2-2-5-5-5-5-----------------
D-2-2-2-2-5-5-5-5-3-3-3-3-5-5-5-5-
A-0-0-0-0-3-3-3-3-3-3-3-3-5-5-5-5-
E-----------------1-1-1-1-3-3-3-3-

It ends on this riff
E---------------------------------------------
B---------------------------------------------
G-2-2-2-2-5-5-5-5-7-7-7-7-10-10-10-10-2-2-2-2-
D-2-2-2-2-5-5-5-5-7-7-7-7-10-10-10-10-2-2-2-2-
A-0-0-0-0-3-3-3-3-5-5-5-5--8--8--8--8-0-0-0-0-
E---------------------------------------------

E-------------------------0-0-0-0-0-0-0-0-0-0-0-0-0-
B-------------------------0-0-0-0-0-0-0-0-0-0-0-0-0-
G-2-2-2-2-----------------2-2-2-2-2-2-2-2-2-2-2-2-2-
D-2-2-2-2-5-5-5-5-5-5-5-5-3-3-3-3-3-3-3-3-3-3-3-3-3-
A-0-0-0-0-5-5-5-5-5-5-5-5-3-3-3-3-3-3-3-3-3-3-3-3-3-
E---------3-3-3-3-3-3-3-3-1-1-1-1-1-1-1-1-1-1-1-1-1-

E-0-0-0-0-0-0-0-0-0-0-0-0-0-0-0-0-0-0-0-
B-0-0-0-0-0-0-0-0-0-0-0-0-0-0-0-0-0-0-0-
G-2-2-2-0-0-0-0-0-0-0-0-0-0-0-0-0-0-0-0-
D-3-3-3-2-2-2-2-2-2-2-2-2-2-2-2-2-2-2-2-
A-3-3-3-2-2-2-2-2-2-2-2-2-2-2-2-2-2-2-2-
E-1-1-1-0-0-0-0-0-0-0-0-0-0-0-0-0-0-0-0-

      After the second chorus the verse riff is played palm muted for a few
to post them. If anyone would prefer them in chord format as opposed to Tab,
E-mail me.
                 
                                                      -Adam
Composição de Brett Gurewitz / Greg Graffin
3.622 exibições
    • ½ Tom
    • A
    • Bb
    • B
    • C
    • Db
    • D
    • Eb
    • E
    • F
    • F#
    • G
    • Ab
  • Adicionar à lista

    0 comentários

    Ver todos os comentários

    Conseguiu tocar?

    0 Tocaram 0 Ainda não

    Grave um vídeo tocando American Jesus e nos envie!

    00:00 / 00:00
    Outros vídeos desta música
    Repetir Qualidade Automático
    Outros vídeos desta música
    00:00 / 00:00
    Automático

    Cifra Club Pro

    Aproveite o Cifra Club com benefícios exclusivos e sem anúncios
    Cifra Club Pro
    Aproveite o Cifra Club com benefícios exclusivos e sem anúncios
    OK