Cifra Club

American Jesus

Bad Religion

Tab de baixo: Versão 4
G||---------||----------------------------------|
D||*-------*||----------------------------------|
A||*-------*||--0-0-0-0-0-0-0-0-3-3-3-3-3-3-3-3-|
E||---------||----------------------------------|
 
----------------------------------|----------------------------------|
----------------------------------|----------------------------------|
----------------------------------|--0-0-0-0-0-0-0-0-3-3-3-3-3-3-3-3-|
--1-1-1-1-1-1-1-1-3-3-3-3-3-3-3-3-|----------------------------------|
        
----------------------------------|-----------|
----------------------------------|-----------|
--0-0-0-0-0-0-0-0-----------------|-----------|
------------------0-0-0-0-0-0-0-0-|--L--------|

                                                                        3x
|-----------------------------------|-----------------------------------||
|*----------------------------------|----------------------------------*||
|*--0-0-0-0-0-0-0-0-3-3-3-3-3-3-3-3-|----------------------------------*||
|-----------------------------------|--1-1-1-1-1-1-1-1-3-3-3-3-3-3-3-3--||
  
----------------------------------|----------------------------------|
----------------------------------|----------------------------------|
--0-0-0-0-0-0-0-0-3-3-3-3-3-3-3-3-|----------------------------------|
----------------------------------|--1-1-1-1-1-1-1-1-0-0-0-0-0-0-0-0-|
    
-----------||------------------------------------||
-----------||*----------------------------------*||
-----------||*--0-0-0-0-3-3-3-3-----------------*||
--0--------||-------------------1-1-1-1-3-3-3-3--||
    
----------------------------------|--------------------|----------------------|
----------------------------------|--------------------|----------------------|
--0-0-0-0-3-3-3-3-5-5-5-5-8-8-8-8-|--7--------5--------|--3--------3--3--2----|
----------------------------------|--------------------|----------------------|
 
|-----------------------------------|-----------------------------------||
|*----------------------------------|----------------------------------*||
|*--0-0-0-0-0-0-0-0-3-3-3-3-3-3-3-3-|----------------------------------*||
|-----------------------------------|--1-1-1-1-1-1-1-1-3-3-3-3-3-3-3-3--||
 
                                                                      3x
-----------------------------------|-----------------------------------||
*----------------------------------|----------------------------------*||
*--0-0-0-0-0-0-0-0-3-3-3-3-3-3-3-3-|----------------------------------*||
-----------------------------------|--1-1-1-1-1-1-1-1-3-3-3-3-3-3-3-3--||
 
----------------------------------|----------------------------------|
----------------------------------|----------------------------------|
--0-0-0-0-0-0-0-0-3-3-3-3-3-3-3-3-|----------------------------------|
----------------------------------|--1-1-1-1-1-1-1-1-0-0-0-0-0-0-0-0-|
   
-----------||------------------------------------||
-----------||*----------------------------------*||
-----------||*--0-0-0-0-3-3-3-3-----------------*||
--0--------||-------------------1-1-1-1-3-3-3-3--||
  
----------------------------------|--------------------|----------------------|
----------------------------------|--------------------|----------------------|
--0-0-0-0-3-3-3-3-5-5-5-5-8-8-8-8-|--7--------5--------|--3--------3--3--2----|
----------------------------------|--------------------|----------------------|
  
|-----------------------------------|-----------------------------------||
|*----------------------------------|----------------------------------*||
|*--0-0-0-0-0-0-0-0-3-3-3-3-3-3-3-3-|----------------------------------*||
|-----------------------------------|--1-1-1-1-1-1-1-1-3-3-3-3-3-3-3-3--||
 
----------------------------------|----------------------------------|
----------------------------------|----------------------------------|
--0-0-0-0-0-0-0-0-3-3-3-3-3-3-3-3-|----------------------------------|
----------------------------------|--1-1-1-1-1-1-1-1-3-3-3-3-3-3-3-3-|
  
----------------------------------|----------------------------------|
----------------------------------|----------------------------------|
--0-0-0-0-0-0-0-0-3-3-3-3-3-3-3-3-|----------------------------------|
----------------------------------|--1-1-1-1-1-1-1-1-3-3-3-3-3-3-3-3-|

----------------------------------|----------------------------------|
----------------------------------|----------------------------------|
--0-0-0-0-0-0-0-0-3-3-3-3-3-3-3-3-|----------------------------------|
----------------------------------|--1-1-1-1-1-1-1-1-3-3-3-3-3-3-3-3-|
 
----------------------------------|----------------------------------|
----------------------------------|----------------------------------|
--0-0-0-0-0-0-0-0-3-3-3-3-3-3-3-3-|----------------------------------|
----------------------------------|--1-1-1-1-1-1-1-1-0-0-0-0-0-0-0-0-|

-----------|----------------------------------|
-----------|----------------------------------|
-----------|--0-0-0-0-3-3-3-3-----------------|
--0--------|------------------1-1-1-1-3-3-3-3-|
 
----------------------------------|----------------------------------|
----------------------------------|----------------------------------|
--0-0-0-0-3-3-3-3-----------------|--0-0-0-0-3-3-3-3-----------------|
------------------1-1-1-1-3-3-3-3-|------------------1-1-1-1-3-3-3-3-|
  
----------------------------------|----------------------------------|
----------------------------------|----------------------------------|
--0-0-0-0-3-3-3-3-----------------|--0-0-0-0-3-3-3-3-----------------|
------------------1-1-1-1-3-3-3-3-|------------------1-1-1-1-3-3-3-3-|

----------------------------------|----------------------------------|
----------------------------------|----------------------------------|
--0-0-0-0-3-3-3-3-----------------|--0-0-0-0-3-3-3-3-5-5-5-5-8-8-8-8-|
------------------1-1-1-1-3-3-3-3-|----------------------------------|
    
--------------------|----------------------|
--------------------|----------------------|
--7--------5--------|--3--------3--3--2----|
--------------------|----------------------|

                                                                        7x
|-----------------------------------|-----------------------------------||
|*----------------------------------|----------------------------------*||
|*--0-0-0-0-0-0-0-0-3-3-3-3-3-3-3-3-|----------------------------------*||
|-----------------------------------|--1-1-1-1-1-1-1-1-3-3-3-3-3-3-3-3--||

---------------------------|----------------------------------|
---------------------------|----------------------------------|
------------------7--------|----------------------------------|
--1-1-1-1-1-1-1-1----------|--3-3-3-3-3-3-3-3-0-0-0-0-0-0-0-0-|
            
-------------------||
-------------------||
--0----------------||
-------------------||
Composição de Brett Gurewitz / Greg Graffin
Colaboração e revisão:
  • Diego Pérez
220 exibições

0 comentários

Ver todos os comentários

Conseguiu tocar?

0 Tocaram 0 Ainda não

Grave um vídeo tocando American Jesus e nos envie!

00:00 / 00:00
Outros vídeos desta música
Repetir Qualidade Automático
Outros vídeos desta música
00:00 / 00:00
Automático

Cifra Club Pro

Aproveite o Cifra Club com benefícios exclusivos e sem anúncios
Cifra Club Pro
Aproveite o Cifra Club com benefícios exclusivos e sem anúncios
OK