Cifra Club

Los Angeles is Burning

Bad Religion

Tab de baixo: Principal
G---------| Intro/prechorus/post chorus
D--------3|
A-333333--|
E---------|

Verse
G----------------|
D----3~----------|
A-3~---3~-0~-3~--|
E--------------3~|
chorus
G--------------------------------------|
D--------------------------------------|
A-00000000------------------------3-2-0|
E----------33333333-11111111-3333------|  x 2

So many lives are on the breeze..|.Los angeles is burning
G--------------------------------|-----------------|      Then play post
D--------------------------------|-----------------|       chorus
A-00000000---------00000000------|-00000000--------|
E----------00000000--------11111111--------33333333|

bridge
G--------------------------------------------|
D--------------------------------------------|
A-33333333--------------------------00000000-|
E---------33333333-11111111-33333333---------|
more a question than a curse....
G--------------------------------|
D--------------------------------|
A------3-2-0---------------------|
E-1~-3~------3-11111111-33333333-|
solo
G-----------------------------------|
D-----------------------------------|
A-33333333--------------------------|
E---------33333333-11111111-33333333| not too sure about this. then play chorus
then end the song with the intro ending on 'C' note, or the third fret of the 'A" 
correct this as needed if you feel like it.
Composição de Brett Gurewitz / Greg Graffin
1.574 exibições

0 comentários

Ver todos os comentários

Conseguiu tocar?

0 Tocaram 0 Ainda não

Grave um vídeo tocando Los Angeles is Burning e nos envie!

00:00 / 00:00
Outros vídeos desta música
Repetir Qualidade Automático
Outros vídeos desta música
00:00 / 00:00
Automático

Cifra Club Pro

Aproveite o Cifra Club com benefícios exclusivos e sem anúncios
Cifra Club Pro
Aproveite o Cifra Club com benefícios exclusivos e sem anúncios
OK